Song name
# A B C D E F G H I J K L M N O P Q R S T U V W X Y Z

Status Quo - Rain tab

Help us improve GuitareTab! Take a short survey!
-------------------------------------------------------------------------------
			     Rain – Status Quo
-------------------------------------------------------------------------------
Tabbed by: Supergarf	
Email: Supergarf@hotmail.co.uk

Tuning: Open G (DGDGBD) Cap0 2nd fret

Intro
e|-------------------------------------------------------|x4
B|-------------------------------------------------------|
G|--5--3--0--0---5—-0--3--0---5-3-0----0-0--5-0--3-3-----|
D|--5—-3—-0--0---5—-0--3--0---5-3-0----0-0--5-0--3-3-----|
A|--5—-3—-0--0---5—-0--3--0---5-3-0----0-0--5-0--3-3-----|
E|-------------------------------------------------------|


Verse
e|----------------------|
B|----------------------|
G|--0----------0-5-3----|
D|--0----------0-5-3----|
A|--0----------0-5-3----|
E|----------------------|


Chorus

    I can’t live without the rain
e|-------------------------------------------------------------|
B|-------------------------------------------------------------|
G|--3-------5----------------0-0-5-0-3-0-5-3-0-5-0--3--3-------|
D|--3-------5----------------0-0-5-0-3-0-5-3-0-5-0--3--3-------|
A|--3-------5----------------0-0-5-0-3-0-5-3-0-5-0--3--3-------|
E|-------------------------------------------------------------|




| /  slide up
| \  slide down
| h  hammer-on
| p  pull-off
| ~  vibrato
| +  harmonic
| x  Mute note
===============================================================================
Related for Rain tab