Song name
# A B C D E F G H I J K L M N O P Q R S T U V W X Y Z

Status Quo - Shine On tab

Shine On
Status Quo


Intro:
   3x
E||-------------------------||
B||*-----------------------*||
G||-------------------------||
D||----7-----7-----7-----7--||
A||*0-----0-----0-----0----*||
E||-------------------------||

Verse 1 and 2:
  4x                  *)bend up 1/4 tone 
E||-------------------------|------------------------|
B||*------------------5---5-|------------------------|
G||-------------7-----7--*5-|------------------------|
D||-----7-7---7-7-----7---7-|----7-----7-----7-----7-|
A||*0-----0---0-0-----------|------0-----0-----0-----|
E||-------------------------|------------------------|

E|-------------------------||
B|------------------------*||
G|-------------------------||
D|----7-----7-----7-----7--|| 
A|0-----0-----0-----0-----*||
E|-------------------------||

E|------------------------|------------------------|
B|------------------------|------------------------|
G|----5-----5-----5-----5-|----5-----5-----5-----5-|
D|----5-----5-----5-----5-|----5-----5-----5-----5-|
A|0-----0-----0-----0-----|0-----0-----0-----0-----|
E|------------------------|------------------------|

E|------------------------|------------------------|
B|------------------------|------------------------|
G|----7-----7-----7-----7-|----7-----7-----7------2|
D|----7-----7-----7-----7-|----7-----7-----7------2|
A|0-----0-----0-----0-----|0-----0-----0-----0-----|
E|------------------------|------------------------|

   1x for verse one, 3x for verse two
E||-------------------------|-------------------------||
B||*------------------------|------------------------*||
G||-------------------------|----------5-----5-----2--|| 
D||-------7---5-----5---5-4-|----4---4-5-----5-----2--|| 
A||*0---0-0---0-------0---0-|------0---0-----0-------*|| 
E||-------------------------|-------------------------||

  continuation verse 1          continuation verse 2
  1x and then repeat verse      2x
E|------------------------|  E||-------------------------||
B|------------------------|  B||*-----------------------*||
G|------------------------|  G||-------------------------||
D|------7---5-----5---5-4-|  D||----7-----7-----7-----7--||
A|0---0-0---0-------0---0-|  A||*0-----0-----0-----0----*||
E|------------------------|  E||-------------------------||

It's also possible that they (or one of them) are playing
this

E|------------------------|------------------------|
B|------------------------|------------------------|
G|----2-----2-----2-----2-|----2-----2-----2-----2-|
D|----2-----2-----2-----2-|----2-----2-----2-----2-|
A|0-----0-----0-----0-----|0-----0-----0-----0-----|
E|------------------------|------------------------|

...and in the second verse you can hear this:

E|------------------------|------------------------|
B|------------------------|------------------------|
G|----2-----2-----2-----2-|----2-----2-----2-----2-|
D|----2-----2-----2-----2-|----2-----2-----2-0h2-2-|
A|0-----0-----0-----0-----|0-----0-----0-----------|
E|------------------------|------------------------|

I'll leave it up to you!

Bridge:

E|------------------------|------------------------|
B|------------------------|------------------------|
G|----5-----5-----5-----5-|------------------------|
D|----5-----5-----5-----5-|----5-----5-----5-----5-|
A|3-----3-----3-----3-----|----5-----5-----5-----5-|
E|------------------------|3-----3-----3-----3-----|


E|------------------------|------------------------|
B|------------------------|------------------------|
G|----3-----3-----3-----3-|------------------------|
D|----3-----3-----3-----3-|----3-----3-----3-----3-|
A|1-----1-----1-----1-----|----3-----3-----3-----3-|
E|------------------------|1-----1-----1-----1-----|


E|------------------------|------------------------|
B|------------------------|------------------------|
G|----5-----5-----5-----5-|------------------------|
D|----5-----5-----5-----5-|----5-----5-----5-----5-|
A|3-----3-----3-----3-----|----5-----5-----5-----5-|
E|------------------------|3-----3-----3-----3-----|


E|------------------------|------------------------|
B|------------------------|------------------------|
G|----7-----7-----7-----7-|7-7-7-7-7-7-7-7-7-7-7-7-|
D|----7-----7-----7-----7-|7-7-7-7-7-7-7-7-7-7-7-7-|
A|5-----5-----5-----5-----|5-5-5-5-5-5-5-5-5-5-5-5-|
E|------------------------|------------------------|


  with overdrive + chorus
E|------------------------|------------------------|
B|----------3-------------|----------3-------------|
G|----------2-------------|----------2-------2-----|
D|2-----2---0-----0-------|2-2-2-2---0-------3p0-0-|
A|0---0-3p0---------3p0-0-|0-0-0-3p0---------------|
E|------------------------|------------------------|


E|------------------------|------------------------|
B|----------3-------------|----------3-------------|
G|----------2-------------|----------2-------------|
D|2-----2---0-----0-------|2-2-2-2---0-------------|
A|0---0-3p0---------3p0-0-|0-0-0-3p0---------3p0-0-|
E|------------------------|------------------------|


Solo (still rythm part):
For a good sound it's important that you play the notes
under the dots staccato (which means short). 

   3x   .     .     .     .      .     . 
E||-------------------------|------------------------|
B||*------------------------|------------3-----3-----|
G||-----2-----2-----2-----2-|----2-----2-2-----2-----| 
D||-----2-----2-----2-----2-|----2-----2-0-----0-----| 
A||*0-----0-----0-----0-----|0-----0-----------------|
E||-------------------------|------------------------|
  d   u d   u d   u d   u  d   u d   u d     d

   2x                          2x
E||--------------------------||--------------------------||
B||*------------------------*||*------------------------*||
G||-----2-----2-----2-----2--||-----5-----5-----5-----5--||
D||-----2-----2-----2-----2--||-----5-----5-----5-----5--||
A||*0-----0-----0-----0-----*||*3-----3-----3-----3-----*||
E||--------------------------||--------------------------||

  2x                          1x
E|--------------------------||------------------------||
B|*------------------------*||------------------------||
G|-----7-----7-----7-----7--||----2-----2-----2-----2-||
D|-----7-----7-----7-----7--||----2-----2-----2-----2-||
A|*5-----5-----5-----5-----*||0-----0-----0-----0-----||
E|--------------------------||------------------------||


Verse 3:

  9x                          2x
E|--------------------------||--------------------------||
B|*------------------------*||*------------------------*||
G|-----2-----2-----2-----2--||-----5-----5-----5-----5--||
D|-----2-----2-----2-----2--||-----5-----5-----5-----5--||
A|*0-----0-----0-----0-----*||*3-----3-----3-----3-----*||
E|--------------------------||--------------------------||

  2x
E||--------------------------||
B||*------------------------*||
G||-----7-----7-----7-----7--||
D||-----7-----7-----7-----7--||
A||*5-----5-----5-----5-----*||
E||--------------------------||


E|------------------------|------------------------|
B|------------------------|------------------------|
G|------9---7-------5---4-|----2p0---2-------------|
D|------7---5-------5---4-|------------------------|
A|0---0-----------0-------|----------------0-----0-|
E|------------------------|------------------3-----|

E|------------------------|------------------------|
B|------------------------|------------------------|
G|------9---7-------5---4-|----2p0---2-------------|
D|------7---5-------5---4-|------------------------|
A|0---0-----------0-------|------------------------|
E|------------------------|------------------------|

  2x                          2x
E||--------------------------||--------------------------||
B||*------------------------*||*------------------------*||
G||-----5-----5-----5-----5--||-----7-----7-----7-----7--||
D||-----5-----5-----5-----5--||-----7-----7-----7-----7--||
A||*3-----3-----3-----3-----*||*5-----5-----5-----5-----*||
E||--------------------------||--------------------------||

   4x
E||-------------------------|-------------------------||
B||*------------------------|------------------------*||
G||-------9---7-------5---4-|----2p0---2--------------||
D||-------7---5-------5---4-|-------------------------||
A||*0---0-----------0-------|----------------0-----0-*||
E||-------------------------|------------------3------||

  Repeat and fade out
E|--------------------------||
B|*------------------------*||
G|-----2-----2-----2-----2--||
D|-----2-----2-----2-----2--||
A|*0-----0-----0-----0-----*||
E|--------------------------||

Tab for solo:

E|------------------|-------------------------------|
B|12b13-12b13-12b13-|12b13---10---10-----10-10p8----|
G|------------------|-----------------------------9-|
D|------------------|-------------------------------|
A|------------------|-------------------------------|
E|------------------|-------------------------------|

  *)bend up 1/4 tone
E|-------------------------|---------------------------|
B|-------------------------|---------------------------|
G|5*-----------------5-5-5-|7b9--7b9r7p5---5-------5-7-|
D|-------7---7-----7-------|-------------7---7-5-7-----|
A|-------------------------|---------------------------|
E|-------------------------|---------------------------|


E|--------------------------|----------------------------|
B|5-------------------------|13------------13------------|
G|--7-5---------------12-14-|---14--14--------14--14-----|
D|------7-5-----------------|----------------------------|
A|----------7-5\3-3-3-------|----------------------------|
E|--------------------------|----------------------------|


E|15-----------------------------------------------|
B|15b17r15-15b17r15-15b17r15-15b17r15p13-----------|
G|---------------------------------------14-14-----|
D|-------------------------------------------------|
A|-------------------------------------------------|
E|-------------------------------------------------|

  *)bend note 1/4 tone
E|5p3-----------------------|--------------------------5-5-|
B|----5----------8----------|----------5-5-----5-5-----5-5-|
G|------5*---7b9--9-9r7p5---|5---5-7b9-----7b9-----7b9-----|
D|------------------------7-|--7---------------------------|
A|--------------------------|------------------------------|
E|--------------------------|------------------------------|


E|----5-5-8-----8-----10b11r10p8----|8---------------------------|
B|----5-5----10------------------10-|--10-8----------------------|
G|7b9-------------------------------|-------7b8r7p5---7---5-7b9~~|
D|----------------------------------|---------------7---7--------|
A|----------------------------------|----------------------------|
E|----------------------------------|----------------------------|

                                                   *)bend note 1/4 tone
E|---------------------------------------|-----------------------|
B|---------------------------------------|-----------------------|
G|7b9~~-7b9~~-7b9~~-7b9~~-7b9~~-7b9~r8~~-|----5---5--------------|
D|---------------------------------------|------7---7-5----------|
A|---------------------------------------|--------------7-5------|
E|---------------------------------------|------------------8*---|


E|4/5-5-5-4/5-5-5----------------|------------------------|-------|
B|4/5-5-5-4/5-5-5----------------|------------------------|-------|
G|----------------7p5---5-7b9-r7p|5-----------------------|-------|
D|--------------------7----------|--7-5-------------------|-------|
A|-------------------------------|------7-6-5-7-6-5-------|-------|
E|-------------------------------|------------------8-7-6-|5------|
Tap to rate this tab
# A B C D E F G H I J K L M N O P Q R S T U V W X Y Z