Song name
# A B C D E F G H I J K L M N O P Q R S T U V W X Y Z

Status Quo - Hold Me tab

Hold Me
Status Quo
In Search of The Fourth Chord 2007


E|-------------------------------------|
B|-------------------------------------|
G|-----------------3-3-----------------|
D|-5-5-3-5-3-5-3-5-----5-3-5-3-5-5-3-5-|
A|-------------------------------------|
E|-------------------------------------|

E|-------------------------------------|
B|-------------------------------------|
G|-----------------3-3-----------------|
D|-5-5-3-5-3-5-3-5-----5-3-5-3-5-5-3-5-|
A|-------------------------------------|
E|-------------------------------------|etc
Tap to rate this tab
# A B C D E F G H I J K L M N O P Q R S T U V W X Y Z