Song name
# A B C D E F G H I J K L M N O P Q R S T U V W X Y Z

Status Quo - Big Fat Mama tab

Tabbed By: Belavista Man
On: 06/05/07
E-mail: anthonybentley@hotmail.co.uk

 Here is my rendition on the solo from one of my favourite Quo songs, 'Big Fat Mama'. 
are a couple of pointers about the TAB:
- In part 1 of the solo, the guitars are both palm muted. In part 2, the guitars go much 
and are not muted at all.
- Guitars 1 and 2 play together at the same time, in both parts of the solo.
- Guitar 2 is basically playing the same thing as guitar 1, but an octave higher.

Part I
Guitar 1:
e|---------------------------------------------------------------------------|
B|---------------------------------------------------------------------------|
G|---------------------------------------------------------------------------|
D|-------0-2-0-----------0-2-h3-p2-2-------0-2-0-----------0-2-h3-p2-2-2-3-2-|
A|-0-2-3-------3-2-0-2-3-------------0-2-3-------3-2-0-2-3-------------------|
E|---------------------------------------------------------------------------|

|-------------------------------------------------------|e
|-------------------------------------------------------|B
|-------------------------------------------------------|G
|-0---------2-3-2-0---------2-3-2-0---------------------|D
|---2-3-2-0---------2-3-2-0---------2-3-2-0-2-3-2---0---|A
|-------------------------------------------------3-----|E

Guitar 2:
e|---------------------------------------------------------------------------|
B|---------------------------------------------------------------------------|
G|--------7-9-7-------------7-9-h10-p9-9--------7-9-7-------------7-9-h10----|p9
D|-7-9-10-------10-9-7-9-10--------------7-9-10-------10-9-7-9-10------------|
A|---------------------------------------------------------------------------|
E|---------------------------------------------------------------------------|

|-----------------------------------------------------------------------|e
|-----------------------------------------------------------------------|B
|-9-9-10-9-7----------9-10-9-7----------9-10-9-7------------------------|G
|------------9-10-9-7----------9-10-9-7----------9-10-9-7-9-10-9----9---|D
|----------------------------------------------------------------10-----|A
|-----------------------------------------------------------------------|E

Part II
Guitar 1:
e|---------------------------------------------------------------------------|
B|---------------------------------------------------------------------------|
G|---------------------------------------------------------------------------|
D|-------0-2-0-----------0-2-2-------0-2-0-----------0-2-2-2-3-2-0---------2-|
A|-0-2-3-------3-2-0-2-3---0-0-0-2-3-------3-2-0-2-3---0-0--------2-3-2-0----|
E|---------------------------------------------------------------------------|

|-------------------------------------------|e
|-------------------------------------------|B
|-------------------------------------------|G
|-3-2-0---------2-3-2-0---------------------|D
|-------2-3-2-0---------2-3-2-0-2-3-2---0---|A
|-------------------------------------3-----|E

Guitar 2:
e|--------------------------------------------------------------------------|
B|--------------------------------------------------------------------------|
G|--------7-9-7-------------7-9-9--------7-9-7-------------7-9-9-9-10-9-7---|
D|-7-9-10-------10-9-7-9-10---7-7-7-9-10-------10-9-7-9-10---7-7----------9-|
A|--------------------------------------------------------------------------|
E|--------------------------------------------------------------------------|

|-----------------------------------------------------------------------|e
|-----------------------------------------------------------------------|B
|--------9-10-9-7----------9-10-9-7-------------------------------------|G
|-10-9-7----------9-10-9-7----------9-10-9-7-9-10-9----9----------------|D
|---------------------------------------------------10------------------|A
|-----------------------------------------------------------------------|E

| /  slide up
| \  slide down
| h  hammer-on
| p  pull-off
| ~  vibrato
| +  harmonic
| x  Mute note
Tap to rate this tab
# A B C D E F G H I J K L M N O P Q R S T U V W X Y Z