Song name
# A B C D E F G H I J K L M N O P Q R S T U V W X Y Z

Status Quo - In My Chair tab

Status Quo
In My Chair


Intro:
E|-----------------------0------|
B|-----------------------0------|
G|-----------------------1------| played three times
D|-----------0-----------2------| in the beginning - twice elsewhere
A|-----0-1-2---2-1-0------------|
E|-0-4---------------3-0--------|


              In My Chair
              (Rossi-Young)


              E
              I saw her talking, now

              My ears were burning

              Her feet started walking, now

              They started turning
              A
              My eyes were half open, but
                                  E (Intro)
              She didn't see me there
                  H                            D       A       E
              We ran along walking 'cross the rooftops In my chair
              (Intro)


              Had a car in my pocket
              And we started moving
              A man in a helmet
              Said, what's that you're using
              My eyes were half open
              But we didn't see him there
              Put the car back in my pocket
              And I'm still here in my chair

            Instrumental

  E		   A		    A		     E
e|----------------|----------------|----------------|12--------------|
h|----------------|14--14--14\12---|14--14---14\12--|---9------------|
g|----------------|14--14--14\12---|14--14---14\12--|------9p7h9p7h9-|
d|----------------|----------------|----------------|----------------|
a|----------------|----------------|----------------|----------------|
e|----------------|----------------|----------------|----------------|


  E		   A		    A		     H
e|----------------|----------------|----------------|-2--------------|
h|8---------------|2---2---2---0---|2---2---2---0---|-------------3--|
g|----------------|2---2---2---0---|2---2---2---0---|-----4--2--4----|
d|----------------|----------------|----------------|----------------|
a|----------------|----------------|----------------|----------------|
e|--------0-2-3-4-|----------------|----------------|----------------|


  D      A   E
e|----------------|----------------|----------------|----------------|
h|-7777777----2-2-|----------------|----------------|----------------|
g|-7777777----2-2-|----------------|----------------|----------------|
d|----------------|----------------|----------------|----------------|
a|----------------|----------------|----------------|----------------|
e|----------------|----------------|----------------|----------------|

              My teeth were laughing, now
              We couldn't stop smiling
              We danced to the Mystery Band
              Without even trying
              My eyes were half open
              But we didn't see them there
              Put my mama back in my pocket
              And I'm still here in my chair
Tap to rate this tab
# A B C D E F G H I J K L M N O P Q R S T U V W X Y Z