Song name
# A B C D E F G H I J K L M N O P Q R S T U V W X Y Z

Status Quo - Point Of No Return tab

Point Of No Return
Status Quo
Thirsty Work 1994

Bass plays all inversions...


   C    F/C    C         G/C               C
E|--20b-20------------------------------------|
B|---------20b-20--18-17-18p17-18p17----------|
G|-----------------------------------19p17-17-|
D|--------------------------------------------|
A|--------------------------------------------|
E|--------------------------------------------|


   C    F/C    C         F        D/F#     G Gsus4 G
E|--20b-20-------------------------------------------|
B|---------20b-20--18-17-18p17-18p17-----------------|
G|-----------------------------------19p17-19--------|
D|---------------------------------------------------|
A|---------------------------------------------------|
E|---------------------------------------------------|


  Am   F/A     G      E7/G#   Am
E|------------------------------|
B|---5-8-6-6p5------3-6-5-5p3---|
G|--5----------7---4----------5-|
D|-7--------------5-------------|
A|------------------------------|
E|------------------------------|


  Am   F/A     G      E7/G#   Am
E|------------------------------|
B|---5-8-6-6p5------3-6-5-5p3---|
G|--5----------7---4----------5-|
D|-7--------------5-------------|
A|------------------------------|
E|------------------------------|
Tap to rate this tab
 
# A B C D E F G H I J K L M N O P Q R S T U V W X Y Z