Song name
# A B C D E F G H I J K L M N O P Q R S T U V W X Y Z

Status Quo - Confidence tab

Confidence
Status Quo
Thirsty Work 1994

Don't take the barlines too literally.
The solo should be phrased however you want (even better if you can do your own!)
but the bars are close enough to be used as guidelines.

Solo at 1:56

                     G        D     C                       G     C G   D
E|-----------------|--------------|-----------12----------|-15-15-15-14-14-|
B|-----------------|--------------|-12-13-15-----15-13-12-|----------------|
G|-(14b15)-(14b15)-|-14--12-12~---|-----------------------|----------------|
D|-----------------|--------------|-----------------------|----------------|
A|-----------------|--------------|-----------------------|----------------|
E|-----------------|--------------|-----------------------|----------------|

               G/B               C                            Am
E|-----------|-----------------|----------------------------|--------------------------|
B|-----15-15-|-b17-15b17-15-13-|-12h13p12----12-------------|--------------------------|
G|-----------|-----------------|----------14-------12-14b15-|-14b15rb14p12----14----12-|
D|-----------|-----------------|----------------14----------|--------------14----14----|
A|-----------|-----------------|----------------------------|--------------------------|
E|-----------|-----------------|----------------------------|--------------------------|

   D
E|---------------|
B|--15b17-15-15~-|
G|---------------|
D|---------------|
A|---------------|
E|---------------|

It is interesting that Rossi is bending an A note (the second in G) into a Bb.
This is G's minor third but seems to work very well in what sounds like a strictly major solo!

Sorry for any typos.
Tap to rate this tab
# A B C D E F G H I J K L M N O P Q R S T U V W X Y Z