Status Quo - Takin Care Of Business tab

Tabbed By: Belavista Man
On: 18/07/2010
E-mail: anthonybentley@hotmail.co.uk

Intro:
| C / / / | Bb / / / | F / / / | C / / / | x1

FULL BAND -

| C / / / | Bb / / / | F / / / | C / / / | x1


   C7     Bb       F7     C
e|-8------------------------------------|
B|-11--------------6--------------------|
G|-9----8-6--------8---10-8----------8b-|
D|-8--------8-8-8--7--------10-10-10----|
A|-10--------------8--------------------|
E|-8------------------------------------| x2

The verses and choruses in this song follow the same chord pattern. There is a mid 
however that goes like this;

| C / / / | let ring | let ring | let ring |

   C5  F5     Eb5 Bb5
e|--------------------|
B|--------------------|
G|--------------------|
D|-----9-9----7-7-----|
A|-9-9-7-7----5-5-7-7-|
E|-7-7------------5-5-|

Easy Peasy! Any questions/queries, just ask me!

| /   slide up
| \   slide down
| h   hammer-on
| p   pull-off
| ~   vibrato
| +   harmonic
| x   Mute note
| b   Bend
| pb  Pre-bend
| br  Bend release
| pbr Pre-bend release
| brb Bend release bend
Tap to rate this tab
 
# A B C D E F G H I J K L M N O P Q R S T U V W X Y Z