Song name
# A B C D E F G H I J K L M N O P Q R S T U V W X Y Z

Steel Panther - Girl From Oklahoma tab

--------------------------------------------------------------------------
                        GIRL FROM OKLAHOMA- STEEL PANTHER
--------------------------------------------------------------------------
Tabbed by: colmMICHAEL
This tab isnt 100% but it sounds close enough. I still have to figure out the fast part 
when i get it i'll post it. Enjoy.


e|-2-3h5-3-2-3h5-3-2p0-----------3-2-0-----------------3--------------------|
B|-3-------------------3-----1h3-------3-0----------------------------------|
G|-2---------------------------------------2-0-0-0-2h4----4p2p0---0---------|
D|-0------------------------------------------------------------4---4-2-0-0-|
A|--------------------------------------------------------------------------|
E|--------------------------------------------------------------------------|

e|------------------|       Then there's this really fast bit that im still
B|--/5-3-5----------|       working on.
G|------------------|
D|------------------|
A|------------------|
E|------------------|


Im not sure about this part

e|--7-10-8-7-7-------------------------------3----------------------|
B|-------------10p8--10b-8---8---------3--5-------------------------|
G|-------------------------9--------/4------------/5-4-2-0-2h4p2-0--|
D|------------------------------------------------------------------|
A|------------------------------------------------------------------|
E|------------------------------------------------------------------|

e|---------------------------------------------------------|
B|---------------------------------------------------------|
G|--------<12>------<5>------------------------------------|
D|--<12>---------------------------------------------------|
A|---------------------------------------------------------|
E|---------------------------------------------------------|
Tap to rate this tab
# A B C D E F G H I J K L M N O P Q R S T U V W X Y Z