Song name
# A B C D E F G H I J K L M N O P Q R S T U V W X Y Z

Stellar Kart - Innocent tab

-------------------------------------------------------------------------------
			     Innocent - Stellar Kart
-------------------------------------------------------------------------------
Tabbed by: Michael Cage
Email: mymusicmania@hotmail.com

Tuning: Eb

Intro 1: (Palm Mutes)
eb|------------------------------------------------+++-----------------------|
Bb|------------------------------------------------+7+-----------------------|
Gb|------------------------------------------------+7+-----------------------|
Db|------------------------------------------------+++-----------------------|
Ab|--------------x22000000x-------------x2220000x----------------------------|
Eb|--x22333333x--------------x22333333x--------------------------------------|

Intro 2: (Power Chords)
eb|--------------------------------------------------------------------------|
Bb|--------------------------------------------------------------------------|
Gb|--------------------------------------------------------------------------|
Db|--44555555--99777777--44555555--99977777----------------------------------|
Ab|--44555555--99777777--44555555--99977777----------------------------------|
Eb|--22333333--77555555--22333333--77755555----------------------------------|

Verse 1: (Power Chords)
eb|--------------------------------------------------------------------------|
Bb|--------------------------------------------------------------------------|
Gb|-----------------------77-----------------------<7>-----------------------|
Db|--4455--7799--4455--77-77--4455--7799--4455--77-<7>-----------------------|
Ab|--4455--7799--4455--77-55--4455--7799--4455--77-<5>-----------------------|
Eb|--2233--5577--2233--55-----2233--5577--2233--55---------------------------|

Pre-Chorus: (Power Chords)
eb|--------------------------------------------------------------------------|
Bb|--------------------------------------------------------------------------|
Gb|--------77----------77-------77-77777777777-------------------------------|
Db|--9977-77-55--9977-77-55--97-77-77777777777-------------------------------|
Ab|--9977-55-55--9977-55-55--97-55-55555555555-------------------------------|
Eb|--7755----33--7755----33--75----------------------------------------------|

Chorus: (Power Chords)
eb|--------------------------------------------------------------------------|
Bb|--------------------------------------------------------------------------|
Gb|----------------------7---------------------------------------------------|
Db|--7-7-4557799-2335577-7-557799-55555555-77777777--------------------------|
Ab|--7-7-4557799-2335577-5-557799-55555555-77777777--------------------------|
Eb|--5-5-2335577-2335577---335577-33333333-55555555--------------------------|


VERSE 2: Same Chords as Verse 1, but Muted


Bridge: (Power Chords)
eb|--------------------------------------------------------------------------|
Bb|--------------------------------------------------------------------------|
Gb|--------------------------------------------------------------------------|
Db|--99-77-22-555-9-7-222-555-9-7-222-55555555555555555555-------------------|
Ab|--99-77-22-555-9-7-222-555-9-7-222-55555555555555555555-------------------|
Eb|--77-55-00-333-7-5-000-333-7-5-000-33333333333333333333-------------------|


Interlude: Same Chord Progression As Verse 1 and 2


Except for...the last chord
eb|--------------------------------------------------------------------------|
Bb|-5------------------------------------------------------------------------|
Gb|-2------------------------------------------------------------------------|
Db|-2------------------------------------------------------------------------|
Ab|-0------------------------------------------------------------------------|
Eb|--------------------------------------------------------------------------|


Chorus & Outro: Same Chords With Rhythm Variations


except for last note...(Natural Harmonic)
eb|--------------------------------------------------------------------------|
Bb|---+----------------------------------------------------------------------|
Gb|--+7+---------------------------------------------------------------------|
Db|---+----------------------------------------------------------------------|
Ab|--------------------------------------------------------------------------|
Eb|--------------------------------------------------------------------------|


************************************
| +   harmonic
| x   Mute note
| <>   Let Ring
************************************
Tap to rate this tab
 
# A B C D E F G H I J K L M N O P Q R S T U V W X Y Z