Song name
# A B C D E F G H I J K L M N O P Q R S T U V W X Y Z

Stephen Marley - Hey Baby chords

Highlighted       Show chord diagrams
#----------------------------------PLEASE NOTE---------------------------------#
#This file is the author's own work and represents their interpretation of the #
#song. You may only use this file for private study, scholarship, or research. #
#------------------------------------------------------------------------------#


----------------------------------------------------------------------------
           Hey Baby by Stephen Marley . . . Tabbed by Bob M.
----------------------------------------------------------------------------

Arranged in 3/4 timing (denoted by the 1 & 2 & 3 & above the tablature).
The timing took the longest to figure out. The whole tab was figured out
by ear so if it's not 100% that's why but I think it sounds pretty close.
Hope it helps!

Open to suggestions and PLEASE RATE!!!


Chords:
F# - 244322
Bm - x24432


Intro:

00:04 - staccato violin arranged for guitar*

    1  &  2  &  3  &
E---2--5--9--5--2---------|
B-------------------------|
G-------------------------|
D-------------------------|
A-------------------------|
E-------------------------|

00:06 - Lead guitar (played throughout the chorus and song also)


         Bm                  F#                          Bm

    1  &  2  &  3  &    1  &  2  &  3  &      1  &  2  &  3  &
E--------------------|-------------------|-------------------------|
B--------------------|-------------------|-------------------------|
G--------------------|-------------------|-------------------------|
D---4--------------4-|--6--2--4~---------|-------6--6--2--4--------|
A--------------------|-------------------|-------------------------|
E--------------------|-------------------|-------------------------|


                       F#                        Bm

   1  &  2  &  3  &     1  &  2  & 3  &     1  &  2  &  3  &
E--------------------|-------------------|-------------------------|
B--------------------|-------------------|-------------------------|
G--------------------|-------------------|-------------------------|
D-----------4--6--2--|--4~------------4--|--6--2--4~---------------|
A--------------------|-------------------|-------------------------|
E--------------------|-------------------|-------------------------|


              F#                            Bm

   1  &  2  &  3  &     1  &  2  &  3  &     1  &  2  &  3  &
E--------------------|--------------------|-----------------------|
B--------------------|--------------------|-----------------------|
G--------------------|--------------------|-----------------------|
D-----6--6--2--4~----|-----------6--6--2--|--4~-------------4-----|
A--------------------|--------------------|-----------------------|
E--------------------|--------------------|-----------------------|


           F#

   1  &  2  &  3  &     1   &  2  &  3  &     1   &  2  &  3  &
E--------------------|---------------------|----------------------|
B--------------------|---------------------|----------------------|
G--------------------|---------------------|----------------------|
D--4--6--2--4~-------|---------------------|----------------------|
A--------------------|---------------------|----------------------|
E--------------------|---------------------|----------------------|

Lyrics and Chords - 00:31

           Bm
Iíve been gone awhile away from you
       F#
And I hope you overstand
          Bm
That Iíve got to do what I must do
   F#
To be a better man
        Bm
Cuz if I was to just to act a fool
    F#
Do nothing with myself
     Bm
Then all my blessings would be cursed
    F#
My world would crumble in
        Bm
Itís a joy when I sit down and
              F#
Think of the good times that we have
     Bm
And what we do to make it through
          F#
When the good turns to bad
       Bm
Well I hope youíll find it in your heart
     F#
And know these words are true
     Bm
And please donít fuss
                F#
Because I must go do what I must do


(Chorus)  -  01:24

    Bm
Hey baby donít you worry
      F#
Even though the road is rocky
    Bm
Iíll be coming home to you again
    F#
Cuz if you thought that I was lost
   Bm
I had to bare my cross
         F#
Now Iím free from all these Chains

Verse 2 - 01:49


   Bm
A time, a space, a different place
     F#
How perfect we might be
   Bm
I would be the wind that blows
      F#
Youíd be that Willow tree
    Bm                                F#
And I could never bare the thought of you not by my side
    Bm
So I would be the warmth of day
    F#
Youíd be the cool of night
    Bm                           F#
And everyday I pray to Jah that one day you will see
    Bm                          F#
And overstand the fact I must fulfill my destiny
   Bm                                    F#
I hope youíll find it in your heart and know these words are true
     Bm
And please donít cry
     F#
You know that I must do what I must do

(Chorus)  -  02:42
    Bm
Hey baby donít you worry
      F#
Even though the road is rocky
    Bm
Iíll be coming home to you again
    F#
Cuz if you thought that I was lost
   Bm
I had to bare my cross
         F#
Now Iím free from all these Chains


(Bridge)
 Bm
Well and itís not easy
 F#
Jah knows how I try, I try
 Bm
So donít you get irie
 F#
Jah knows how I try, I try

Verse 3 - 3:32
 Bm
God knows...
  F#
Life is one big road
  Bm
With a lot of signs and turns & twists and curves
     F#
Even though the road is rocky
   Bm
My main thing's to rock and keep on rockin'
   F#
From city to city
   Bm
Backyard to yard
    F#
And we be seein' the sights, standin' under the lights
     Bm
And the spot is hot, it's cold and lonely at night
      F#
And I'm feelin' and I'm dreamin' and I'm holding you tight
    Bm
But hold on, every single road I roll on
  F#
Comes to an end and I'm back home again
   Bm                             F#
So baby please don't cry, there's no valley low and there's no mountain high
   Bm
And our love don't die with the passage of time
  F#
It just grows more,

And just keep strong
  Bm
And even though i'm gone, I am never too far
 F#
You're the light thru the dark, shining right thru my heart
 Bm
So my journey must start...


(Chorus)  -  04:26
    Bm
Hey baby donít you worry
      F#
Even though the road is rocky
    Bm
Iíll be coming home to you again
    F#
Cuz if you thought that I was lost
   Bm
I had to bare my cross
         F#
Now Iím free from all these Chains


Bm  F#
Bm  F#
Bm  F#
Bm  F#
Bm  F#
. . . . repeat till end

Playing Notes / Musical Notation;-

* - mute the strings with your fretting hand to accentuate the staccato feel of the strings.
~ - Vibrato


e-----------------------------------------------||
b---------------------TAB-----------------------||
g------------------DEDICATED -------------------||
d-----------------TO EADAOIN--------------------||
a--------------------XXXX-----------------------||
e-----------------------------------------------||

My email is ultimate-guitartabber@hotmail.com if you have any questions or
comments but constructive criticism only please.
Tap to rate this tab
 
# A B C D E F G H I J K L M N O P Q R S T U V W X Y Z