Song name
# A B C D E F G H I J K L M N O P Q R S T U V W X Y Z

Stereo Pony - Hitohira No Hanabira tab

Chords & Tabs:

Intro chorus

Ebm Cb Db Gb
Ebm Cb Db Gb Gb/F

Intro solo

Ebm Abm Bbm (x2) (Rhythm guitar during riff)

Verse

Ebm Db Ebm Db
Ab Gb Ab Gb
Ab Gb Cb Db

Repeat Chorus/Intro Chorus 2 times

Ebm Abm Bbm

Repeat Verse
Repeat Chorus

Solo

Ebm (Rhythm guitar durin solo)

Bridge

Cb Db Ebm
Cb Db Ab Bb

Repeat Chorus 2 times

Outro

Ebm (Rhythm guitar durin riff)


Intro Riff

---14-13-9----11--|
-----------11-----|
------------------|
------------------|
------------------|
------------------|


---------------------------------------------------|
----------------------------------13-13-11-13------|
--6-6-8-6-8-6-8-8-11---6-6-8-6-8--13-13-11-13-11---|
---------------------------------------------------|
--4-4-6-4-6-4-6-6-9----4-4-6-4-6-------------------|
---------------------------------------------------|


--------------------------------------|
-----------------------9---11---------|
--6-6-8-6-8-6-8-8-11------------------|
-----------------------6---8----------|
--4-4-6-4-6-4-6-6-9-------------------|
--------------------------------------|

Middle Riff

--------------------------------------|
-----------------------9---11---------|
--6-6-8-6-8-6-8-8-11------------------|
-----------------------6---8----------|
--4-4-6-4-6-4-6-6-9-------------------|
--------------------------------------|

Solo

------------------------------------------------------ ------------|
------------------------------------------------------ ------------|
-----------------6-------------------6-6---------6-6-- (x2) -------|
-------4-6-4-6-8---8-6-4-6-4---------4-4---------4-4-- ------------|
-6-4-6-----------------------6-4-6-4-----6-4-6-4------ -6-4--------|
------------------------------------------------------ ------------|

Outro Riff

-----------------------------------|
-----------------------------------|
--6-6-8-6-8-6-8-8-11--8-8-8-6-8~---|
-----------------------------------|
--4-4-6-4-6-4-6-6-9---6-6-6-4-6~---|
-----------------------------------|
Tap to rate this tab
# A B C D E F G H I J K L M N O P Q R S T U V W X Y Z