Song name
# A B C D E F G H I J K L M N O P Q R S T U V W X Y Z

Stereomud - Pain tab

Artist- Stereomud
Song- Pain
Tabber- Iconoclast
Tuning- Drop D, then one whole step down. (CGCFAD)

Intro
A
-----------------------------------------------
-----------------------------------------------
-7---------------------------------------------
-x-let ring, with flanger----------------------
-5---------------------------------------------
-0---------------------------------------------

B
----------------------------------------------------------------------
----------------------------------------------------------------------
--------7-7b8-7-5-5-5------7-7-8-7-5-5-5/7----------------------------
----0-0-x-x-x-x-x-x-x--0-0-x-x-x-x-x-x-x-x----------------------------
----0-0-5-5b6-5-3-3-3--0-0-5-5b6-5-3-3-3/5----------------------------
----0-0----------------0-0--------------------------------------------
    pm.                pn.

Verse
A. Repeat a few times
-----------------
-----------------
-7-7b8r7---------
---------7b8r7---
-----------------
-----------------

B: Guitar 1
-------------------------------------------------------------------
-------------------------------------------------------------------
-------------------------------------------------------------------
-0-0--0-0--10-10--3-3--5-5--0-0--0-0--10-10-10-10-10-10-10-10-5-3--
-0-0--0-0---8--8--3-3--5-5--0-0--0-0---8--8--8--8--8--8--8--8-5-3--
-0-0--0-0---8--8--3-3--5-5--0-0--0-0---8--8--8--8--8--8--8--8-5-3--

B: Guitar 2
--10~--13~--8~---7---10~----------------------
------------8~---8-------10~--11~-------------
----------------------------------------------
----------------------------------------------
----------------------------------------------
----------------------------------------------

C
----------------------------------------------------------------
----------------------------------------------------------------
----------------------------------------------------------------
10-10-10-10-10-10-10-10-3-3-3-3-5-5-5-5-5-5---------------------
-8--8--8--8--8--8--8--8-3-3-3-3-5-5-5-5-5-5---------------------
-8--8--8--8--8--8--8--8-3-3-3-3-5-5-5-5-5-5---------------------
pm..............

Chorus
-------------------------------------------------------------------
-------------------------------------------------------------------
-7\5/10~-10/12-12-12-12-12-12-12-----------------------------------
-x-x-x----x--x--x--x--x--x--x--x-10-10-10-10-10-10-10-10-10-10-10--
-5\3/8~---8/10-10-10-10-10-10-10--8--8--8--8--8--8--8--8--8--8--8--
----------------------------------8--8--8--8--8--8--8--8--8--8--8--

-------------------------------------------------------------
-------------------------------------------------------------
-7-7-7-7-5-5-5-5-5-5/7-7-------------------------------------
-5-5-5-5-3-3-3-3-3-3/5-5-------------------------------------
-5-5-5-5-3-3-3-3-3-3/5-5-------------------------------------
-5-5-5-5-3-3-3-3-3-3/5-5-------------------------------------

Intro B

Verse A, B, C

Chorus

Intro B

Bridge:(play first part a couple times, then end with the next part)
--------------|--------------------------13-----------
--------------|---------------------------x-----------
--------------|---------------------------x-----------
-0-0----0-0---|--10-10-10-10-10-10-10-10-10-----------
-0-0----0-0---|---x--x--x--x--x--x--x--x-10-----------
-0-0----0-0---|---8--8--8--8--8--8--8--8--------------

Chorus

Intro B

Fill during the last play of Intro B
----------------
----------------
----------------
-7\5/10/7-------
----------------
----------------

A couple things in here i think are wrong, like the chord at the end of the
bridge. If anyone can correct some of the screw ups in this tab make corrections.
Enjoy.
Tap to rate this tab
 
# A B C D E F G H I J K L M N O P Q R S T U V W X Y Z