Song name
# A B C D E F G H I J K L M N O P Q R S T U V W X Y Z

Stereophonics - Feel tab

Stereophonics-Feel

Band-Kelly Jones-Vocals, Guitar
     Richard Jones-Bass
     Javier Weyler

Verse

Gtr 1

(Clean + Reverb)

Verse Riff A
e-3~~~~~~~~~~~~~~~~~~--3~~~~~~~~~~~~~~~~~~--|
B-3~~~~~~~~~~~~~~~~~~--3~~~~~~~~~~~~~~~~~~--|
G-3~~~~~~~~~~~~~~~~~~--3~~~~~~~~~~~~~~~~~~--|
D-5~~~~~~~~~~~~~~~~~~--4~~~~~~~~~~~~~~~~~~--|
A-------------------------------------------|
E-------------------------------------------|

e-3~~~~~~~~~~~~~~~~~~--3~~~~~~~~~~~~~~~~~~--|
B-3~~~~~~~~~~~~~~~~~~--3~~~~~~~~~~~~~~~~~~--|
G-3~~~~~~~~~~~~~~~~~~--3~~~~~~~~~~~~~~~~~~--|
D-3~~~~~~~~~~~~~~~~~~--2~~~~~~~~~~~~~~~~~~--|
A-------------------------------------------|
E-------------------------------------------|

e-3~~~~~~~~~~~~~3~~~~~~~~~~~~~3~~~~~~~~~~~~~--| As Many Times As Neccesary
B-3~~~~~~~~~~~~~3~~~~~~~~~~~~~3~~~~~~~~~~~~~--|
G-3~~~~~~~~~~~~~3~~~~~~~~~~~~~3~~~~~~~~~~~~~--|
D-1~~~~~~~~~~~~~1~~~~~~~~~~~~~1~~~~~~~~~~~~~--|
A---------------------------------------------|
E---------------------------------------------| 

Verse 2

Gtr 1 w/ Verse Riff A

Gtr 2 w/ Slight Dist + Whammy Bar
Riff B
e-------------------------------------------------------|
B-------------------------------------------------------|
G-------------------------------------------------------|
D-5~~~~~~~~~~~~~~~--4~~~~~~~~~~~~~~~--3~~~~~~~~~~~~~~~--|
A-------------------------------------------------------|
E-------------------------------------------------------|

e-------------------------------------------------------------|
B-------------------------------------------------------------|
G-------------------------------------------------------------|
D-2~~~~~~~~~~~~~~~--1~~~~~~~~~~~--1~~~~~~~~~~~--1~~~~~~~~~~~--|
A-------------------------------------------------------------|
E-------------------------------------------------------------|

Verse 3

Gtr 1 w/Verse Riff A

Gtr 2
Riff C
e-----5--3-------------5--3------------5--3----|
B-----3--3-------------3--3------------3--3----|
G--------------------0-------------------------|
D-5~~~~~~~~~~~--4~~~~~~~~~~~--3~~~~~~3~~~~~~~--|
A----------------------------------------------|
E----------------------------------------------|

e--------5--3---------------------------------|
B--------3--3--------------3------3------3----|
G----0-------------------3---3---3------3-----|
D-2~~~~~~~~~~~--1~~~~1-2--------3---3-4----4--|
A---------------------------------------------|
E---------------------------------------------|

Verse 4

Gtr 1 w/ Verse Riff A

Gtr 2 w/ Verse Riff B

Chorus

Gtr 1
Riff D
e-3-3-3-3-3--3-3-3-3-3--3-3-3-3-3--3-3-3-3-3--3-3-3-3-3--|
B-3-3-3-3-3--3-3-3-3-3--3-3-3-3-3--3-3-3-3-3--3-3-3-3-3--|
G-3-3-3-3-3--3-3-3-3-3--3-3-3-3-3--3-3-3-3-3--3-3-3-3-3--|
D-1-1-1-1-1--2-2-2-2-2--3-3-3-3-3--4-4-4-4-4--5-5-5-5-5--|
A--------------------------------------------------------|
E--------------------------------------------------------|

Gtr 2 w/ Slight Distortion + Tremolo
Riff E
e-----------------------------------------------------------------|
B-----------------------------------------------------------------|
G-----------------------------------------------------------------|
D-1----1----1--2----2----2--3----3----3--4----4----4--5--0--5b-5--|
A-----------------------------------------------------------------|
E-----------------------------------------------------------------|

Verse

Gtr 1 w/ Verse Riff A

Gtr 2 

e----------------------------|
B----------------------------|
G----------------------------|
D-4-0-5b-5--3-0-5b-5--2b-2b--|
A----------------------------|
E----------------------------|

Chorus

Gtr 1 w/ Riff D

Gtr 2 w/ Riff E

Final Verse

Gtr 1 w/ Verse Riff A

Gtr 2

When Kelly Sings 'I Cant Sleep, Sit and Watch The Rain, Again'

Gtr 2 Plays:

e-------------------------------------------|
B-------------------------------------------|
G-------------------------------------------|
D-3~~~~~~~~~~~~~~--5-3--2bb--------------1--|
A-------------------------------------------|
E-------------------------------------------|
Tap to rate this tab
# A B C D E F G H I J K L M N O P Q R S T U V W X Y Z