Song name
# A B C D E F G H I J K L M N O P Q R S T U V W X Y Z

Stereophonics - Crush tab

Crush-Stereophonics

Intro

e-------x----------|
B-------x----------|
G-------x----------|
D-14-12-x-14-12-9--|
A-12-10-x-12-10-7--|
E-------x----------| x4

Verse

e----------------------------------------|
B----------------------------------------| As Many Times As Neccesary
G----------------------------------------|
D-7-x-7-x-7-x-7-x-7-x-7-x-7-x-7-x-7-x-7--|
A-7-x-7-x-7-x-7-x-7-x-7-x-7-x-7-x-7-x-7--|
E-5-x-5-x-5-x-5-x-5-x-5-x-5-x-5-x-5-x-5--|

e-------x----------|
B-------x----------|
G-------x----------|
D-14-12-x-14-12-9--|
A-12-10-x-12-10-7--|
E-------x----------| x2

Do The Entire Thing Twice.

Chorus

Guitar 1
       A5              C5             D5           F5         G5
e---------------------------------------------------------------------|
B---------------------------------------------------------------------|
G---------------------------------------------------------------------|
D-7-7-7-7-7-7-7--10-10-10-10-10-12-12-12-12-12--3-3-3-3-3--5-5-5-5-5--|
A-7-7-7-7-7-7-7--10-10-10-10-10-12-12-12-12-12--3-3-3-3-3--5-5-5-5-5--|
E-5-5-5-5-5-5-5--8--8--8--8--8--10-10-10-10-10--1-1-1-1-1--3-3-3-3-3--| x4

Guitar 2

e----8------------|
B-10---10-8-10-8--| This Is Repeated 
G-----------------| Through The Chorus
D-----------------|
A-----------------|
E-----------------|

Guitar 3

e----------|
B----------| Enters On the F and the G
G---4-5-7--|
D-7--------|
A----------|
E----------|

Bridge

Guitar 1

e-------x----------|
B-------x----------|
G-------x----------|
D-14-12-x-14-12-9--|
A-12-10-x-12-10-7--|
E-------x----------| x4

Guitar 2

(Wah-Wah)

e--------------------------------|
B-8-8-x-5-8-8-x-5-8-8-x-5-8-8-x--| Throughout Bridge
G--------------------------------|
D--------------------------------|
A--------------------------------|
E--------------------------------|

Verse 2

Guitar 1

e----------------------------------------|
B----------------------------------------| As Many Times As Neccesary
G----------------------------------------|
D-7-x-7-x-7-x-7-x-7-x-7-x-7-x-7-x-7-x-7--|
A-7-x-7-x-7-x-7-x-7-x-7-x-7-x-7-x-7-x-7--|
E-5-x-5-x-5-x-5-x-5-x-5-x-5-x-5-x-5-x-5--|

Guitar 2

e------------------------------|
B------------------------------| As Many Times As neccesary
G------------------------------|
D------------------------------|
A-7-x-7-x-7--5/7-x-7-x-7--5/7--|
E-5-x-5-x-5--3/5-x-5-x-5--3/5--|

Then:

Guitar 1

e-------x----------|
B-------x----------|
G-------x----------|
D-14-12-x-14-12-9--|
A-12-10-x-12-10-7--|
E-------x----------| x2

Guitar 2

(Wah-Wah)

e-15-15-x-15-15-x-15-15-x-15-15-x--|
B-15-15-x-15-15-x-15-15-x-15-15-x--| As Many Times As Neccesary
G----------------------------------|
D----------------------------------|
A----------------------------------|
E----------------------------------|

Part 2

Guitar 1

e----------------------------------------|
B----------------------------------------| As Many Times As Neccesary
G----------------------------------------|
D-7-x-7-x-7-x-7-x-7-x-7-x-7-x-7-x-7-x-7--|
A-7-x-7-x-7-x-7-x-7-x-7-x-7-x-7-x-7-x-7--|
E-5-x-5-x-5-x-5-x-5-x-5-x-5-x-5-x-5-x-5--|

Guitar 2

e------------------------------|
B------------------------------| As Many Times As neccesary
G------------------------------|
D------------------------------|
A-7-x-7-x-7--5/7-x-7-x-7--5/7--|
E-5-x-5-x-5--3/5-x-5-x-5--3/5--|

Then:

Guitar 1

e-------x----------|
B-------x----------|
G-------x----------|
D-14-12-x-14-12-9--|
A-12-10-x-12-10-7--|
E-------x----------| x2

Guitar 2

(Wah-Wah)

e-17-17-x-17-17-x-17-17-x-17-17-x--|
B-17-17-x-17-17-x-17-17-x-17-17-x--| As Many Times As Neccesary
G----------------------------------|
D----------------------------------|
A----------------------------------|
E----------------------------------|

Chorus

Guitar 1
       A5              C5             D5           F5         G5
e---------------------------------------------------------------------|
B---------------------------------------------------------------------|
G---------------------------------------------------------------------|
D-7-7-7-7-7-7-7--10-10-10-10-10-12-12-12-12-12--3-3-3-3-3--5-5-5-5-5--|
A-7-7-7-7-7-7-7--10-10-10-10-10-12-12-12-12-12--3-3-3-3-3--5-5-5-5-5--|
E-5-5-5-5-5-5-5--8--8--8--8--8--10-10-10-10-10--1-1-1-1-1--3-3-3-3-3--| x4

Guitar 2

e----8------------|
B-10---10-8-10-8--| This Is Repeated 
G-----------------| Through The Chorus
D-----------------|
A-----------------|
E-----------------|

Guitar 3

e----------|
B----------| Enters On the F and the G
G---4-5-7--|
D-7--------|
A----------|
E----------|

Solo

Guitar 1

e-------x----------|
B-------x----------|
G-------x----------|
D-14-12-x-14-12-9--|
A-12-10-x-12-10-7--|
E-------x----------| x2

Guitar 2

(Wah-Wah)

e-15b-15r-12-----------------------------|
B-------------15-13--15br----------------|
G---------------------------14////////0--|
D----------------------------------------|
A----------------------------------------|
E----------------------------------------|

---STOP---

Guitar 1

e-------x----------|
B-------x----------|
G-------x----------|
D-14-12-x-14-12-9--|
A-12-10-x-12-10-7--|
E-------x----------| x2

Guitar 2

(Wah-Wah)

e-15b--15r--------------15bbbbbbbbbbbb--|
B-----------15-13--15br-----------------|
G---------------------------------------|
D---------------------------------------|
A---------------------------------------|
E---------------------------------------|

Chorus

Guitar 1
       A5              C5             D5           F5         G5
e---------------------------------------------------------------------|
B---------------------------------------------------------------------|
G---------------------------------------------------------------------|
D-7-7-7-7-7-7-7--10-10-10-10-10-12-12-12-12-12--3-3-3-3-3--5-5-5-5-5--|
A-7-7-7-7-7-7-7--10-10-10-10-10-12-12-12-12-12--3-3-3-3-3--5-5-5-5-5--|
E-5-5-5-5-5-5-5--8--8--8--8--8--10-10-10-10-10--1-1-1-1-1--3-3-3-3-3--| x4

Guitar 2

e----8------------|
B-10---10-8-10-8--| This Is Repeated 
G-----------------| Through The Chorus
D-----------------|
A-----------------|
E-----------------|

Guitar 3

e----------|
B----------| Enters On the F and the G
G---4-5-7--|
D-7--------|
A----------|
E----------|

Guitar 4
 
e-0-0-0-0-0-0-0-0-0-0-0-0-0-0-0-0--| Throughout Chorus
B-8-8-8-8-8-8-8-8-8-8-8-8-8-8-8-8--|
G----------------------------------|
D----------------------------------|
A----------------------------------|
E----------------------------------|

Guitar 5

e-17-17-17-17-17-17-17-17-17-17-17-17-17-17-17--| Throughout Chorus
B-----------------------------------------------|
G-----------------------------------------------|
D-----------------------------------------------|
A-----------------------------------------------|
E-----------------------------------------------|

Outro

Guitar 1
       A5              C5             D5           F5         G5
e---------------------------------------------------------------------|
B---------------------------------------------------------------------|
G---------------------------------------------------------------------|
D-7-7-7-7-7-7-7--10-10-10-10-10-12-12-12-12-12--3-3-3-3-3--5-5-5-5-5--|
A-7-7-7-7-7-7-7--10-10-10-10-10-12-12-12-12-12--3-3-3-3-3--5-5-5-5-5--|
E-5-5-5-5-5-5-5--8--8--8--8--8--10-10-10-10-10--1-1-1-1-1--3-3-3-3-3--| x4

Guitar 2

e----8------------|
B-10---10-8-10-8--| This Is Repeated 
G-----------------| Through The Outro
D-----------------|
A-----------------|
E-----------------|

Guitar 3

e----------|
B----------| Enters On the F and the G
G---4-5-7--|
D-7--------|
A----------|
E----------|

Guitar 4
 
e-0-0-0-0-0-0-0-0-0-0-0-0-0-0-0-0--| Throughout Outro
B-8-8-8-8-8-8-8-8-8-8-8-8-8-8-8-8--|
G----------------------------------|
D----------------------------------|
A----------------------------------|
E----------------------------------|

Guitar 5

e-17-17-17-17-17-17-17-17-17-17-17-17-17-17-17--| Throughout Outro
B-----------------------------------------------|
G-----------------------------------------------|
D-----------------------------------------------|
A-----------------------------------------------|
E-----------------------------------------------|

Guitar 6

e-17---|
B-20b--| Repeat Through The Outro
G------| 
D------|
A------|
E------|
Tap to rate this tab
# A B C D E F G H I J K L M N O P Q R S T U V W X Y Z