Song name
# A B C D E F G H I J K L M N O P Q R S T U V W X Y Z

Stereophonics - Looks Like Chaplin tab

Artist: Stereophonics
Song: Looks Like Chaplin
Album: Word Gets Around

Okay, this is 100% correct garunteeeeed! i had to tab this because its such a great
song and all the tabs on the net of the song suck arse! Notes: there are two guitars
in some parts, so ive tried to combine them both to 1 guitar, but its not difficult!

So here you go peeps...

Intro

E | 0-----------------|0-----------------0-|0-----------------|
A | 2-----------------|2----------------10/|2-----------------|
D | 2-----------------|2-----------------9/|2-----------------|
G | 0-----------------|0-------------------|0-----------------|
b | 0---3h00----------|0---3h00------------|0---3h00----------|
e | 0--------3h0-3h00-|0--------3h0-3h0----|0--------3h0-3h00-|

E | 0---------#######|
A | 2---------#######|
D | 2---------#######|
G | 0---------#######|
b | 0---3h00--#######|
e | 0--------3#######|

Intro w/ drums

E | 0-0-000-0-0-000-|0-0-000-0-0--0----|0-0-000-0-0-000-|0-0-000-0#######|
A | 2-2-222-2-2-222-|2-2-222-2-2-10/---|2-2-222-2-2-222-|2-2-222-2#######|
D | 2-2-222-2-2-222-|2-2-222-2-2--9/---|2-2-222-2-2-222-|2-2-222-2#######|
G | 0-0-000-0-0-000-|0-0-000-0-0-------|0-0-000-0-0-000-|0-0-000-0#######|
b | 0-0-300-0-0-000-|0-0-300-0-0-------|0-0-000-0-0-000-|0-0-300-0#######|
e | 0-0-000-3-0-300-|0-0-000-3-0-------|0-0-000-3-0-300-|0-0-000-3#######|

Verse 1 - 'i feel awash...'

E | 0-0-0-0-0-0--0---|               E | 0-0-0-0-0-0-####|
A | 2-2-2-2-2-2-10/--|               A | 2-2-2-2-2-2-####|
D | 2-2-2-2-2-2--9/--|   x 3  then   D | 2-2-2-2-2-2-####|   x 1
G | 0-0-0-0-0-0------|               G | 0-0-0-0-0-0-####|
b | 0-0-0-0-0-0------|               b | 0-0-0-0-0-0-####|
e | 0-0-0-0-0-0------|               e | 0-0-0-0-0-0-####|

Chrous - 'and i hear him...'

E | ----------------|               E | 0000000--0----####|
A | 0-0-0-0-0-0-####|               A | 2222522-10/---####|
D | 2-2-2-2-2-2-####|               D | 2222522--9/---####|
G | 2-2-2-2-2-2-####|   x 2 then    G | --------------####|  x 2
b | 2-2-2-2-2-2-####|               b | --------------####|
e | 3-3-3-3-3-3-####|               e | --------------####|

E | ----------------|               E | 0000000--0----####|
A | 0-0-0-0-0-0-####|               A | 2222522-10/---####|
D | 2-2-2-2-2-2-####|               D | 2222522--9/---####|
G | 2-2-2-2-2-2-####|   x 2 then    G | --------------####|  x 2
b | 2-2-2-2-2-2-####|               b | --------------####|
e | 3-3-3-3-3-3-####|               e | --------------####|


Bridge/mid 8.. other part! - 'they take him in...'

E | ----------------|------------------|
A | ----------------|2-----3-----------|
D | 0---0-----------|4-4---2-----------|   x 2
G | 2---2-----------|--4---0--------2h0|
b | 3---3-----------|--3---1-----1h0---|
e | ----2-----------|------0-----------|

E | ------------------|----------------|--------3-3-3-3-|
A | 2-----3-----------|2-----3-3-3-3-3-|2-2-2-2-2-2-2-2-|
D | 4-4---2-----------|4-4---2-2-2-2-2-|2-2-2-2-2-2-2-2-|
G | --4---0--------2h0|--4---0-0-0-0-0-|0-0-0-0-0-0-0-0-|
b | --3---1-----1h0---|--3---1-1-1-1-1-|0-0-0-0---------|
e | ------0-----------|------0---------|----------------|

Break

E | 0-0-000-0-0-000-|0-0-000-0-0--0----|0-0-000-0-0-000-|0-0-000-0#######|
A | 2-2-222-2-2-222-|2-2-222-2-2-10/---|2-2-222-2-2-222-|2-2-222-2#######|
D | 2-2-222-2-2-222-|2-2-222-2-2--9/---|2-2-222-2-2-222-|2-2-222-2#######|
G | 0-0-000-0-0-000-|0-0-000-0-0-------|0-0-000-0-0-000-|0-0-000-0#######|
b | 0-0-300-0-0-000-|0-0-300-0-0-------|0-0-000-0-0-000-|0-0-300-0#######|
e | 0-0-000-3-0-300-|0-0-000-3-0-------|0-0-000-3-0-300-|0-0-000-3#######|

Verse 2 - 'they take him in strip him...'

E | 0-0-0-0-0-0--0---|               E | 0-0-0-0-0-0-####|
A | 2-2-2-2-2-2-10/--|               A | 2-2-2-2-2-2-####|
D | 2-2-2-2-2-2--9/--|   x 3  then   D | 2-2-2-2-2-2-####|   x 1
G | 0-0-0-0-0-0------|               G | 0-0-0-0-0-0-####|
b | 0-0-0-0-0-0------|               b | 0-0-0-0-0-0-####|
e | 0-0-0-0-0-0------|               e | 0-0-0-0-0-0-####|

Chrous - 'and i hear them...'

E | ----------------|               E | 0000000--0----####|
A | 0-0-0-0-0-0-####|               A | 2222522-10/---####|
D | 2-2-2-2-2-2-####|               D | 2222522--9/---####|
G | 2-2-2-2-2-2-####|   x 2 then    G | --------------####|  x 2
b | 2-2-2-2-2-2-####|               b | --------------####|
e | 3-3-3-3-3-3-####|               e | --------------####|

E | ----------------|               E | 0000000--0----####|
A | 0-0-0-0-0-0-####|               A | 2222522-10/---####|
D | 2-2-2-2-2-2-####|               D | 2222522--9/---####|
G | 2-2-2-2-2-2-####|   x 2 then    G | --------------####|  x 2
b | 2-2-2-2-2-2-####|               b | --------------####|
e | 3-3-3-3-3-3-####|               e | --------------####|

other part - 'asks to use the phone..'

E | ----------------|------------------|----------------|----------------|
A | ----------------|2-----3-----------|0---------------|0---------------|
D | 0---0-----------|4-4---2-----------|0---------------|0---------------|
G | 2---2-----------|--4---0--------2h0|2---------------|2---------------|
b | 3---3-----------|--3---1-----1h0---|3---------------|3---------------|
e | ----2-----------|------0-----------|----------------|----------------|

E | ----------------|------------3---|
A | 2---------------|3---2---0-------|
D | 4---------------|----------------|
G | 2---------------|--------------0-|
b | 3---------------|--1---1---1-----|
e | ----------------|----------------|

E | ----------------|------------3---|
A | ----------------|3---2---0-------|
D | 0-----0---0-----|----------------|
G | 2-----2---2-----|--------------0-|        x 3 END
b | 3-----3---3-----|--1---1---1-----|
e | ------0---2-----|----------------|


TABBED MY ME - barney
Tap to rate this tab
# A B C D E F G H I J K L M N O P Q R S T U V W X Y Z