Song name
# A B C D E F G H I J K L M N O P Q R S T U V W X Y Z

Stereophonics - Lying In The Sun tab

#-----------------------------------------------------------------------------#
#-- File created with Instab - http://www.pconline.com/~smcarey/instab.html --#
#-----------------------------------------------------------------------------#

Author/Artist: Stereophonics
Title: Lying in the Sun
Album: just enough education to perform
Transcribed by: andyC
Email: andyc2407@hotmail.com

This is my first tab so let me know what you think.

Capo 4th fret

Listen to the song to get exact timings and stuff
For the intro and verse alternate between a D and
Dsus2 chord, adding your pinky on the 4th fret when
required.  Its easy when you get the hang of it.  The
chorus part is basically a G6th chord.

-----2-------2---|-----2-------2---|-----2-------2---|-----2-------2---|------|
-----------3---3-|-----------3---3-|-----------3---3-|-----------3---3-|------|
---2---2-4-------|---2---2-4-------|---2---2-4-------|---2---2-4-------|------|
-0---------------|-0---------------|-0---------------|-0---------------|------|
-----------------|-----------------|-----------------|-----------------|------|
-----------------|-----------------|-----------------|-----------------|------|
 Intro

-----2-------2---|-----2-------2---|-----2-------2---|-----2-------2---|------|
-----------3---3-|-----------3---3-|-----------3---3-|-----------3---3-|------|
---2---2-4-------|---2---2-4-------|---2---2-4-------|---2---2-4-------|------|
-0---------------|-0---------------|-0---------------|-0---------------|------|
-----------------|-----------------|-----------------|-----------------|------|
-----------------|-----------------|-----------------|-----------------|------|
 "Wish I could lie in the sun......

-----0-------0---|-----0-------0---|-----0-------0---|-----0-------0---|------|
-----------3---3-|-----------3---3-|-----------3---3-|-----------3---3-|------|
---2---2-4-------|---2---2-4-------|---2---2-4-------|---2---2-4-------|------|
-0---------------|-0---------------|-0---------------|-0---------------|------|
-----------------|-----------------|-----------------|-----------------|------|
-----------------|-----------------|-----------------|-----------------|------|
 "Wish I could lie down there.....

-----2-------2---|-----2-------2---|-----2-------2---|-----2-------2---|------|
-----------3---3-|-----------3---3-|-----------3---3-|-----------3---3-|------|
---2---2-4-------|---2---2-4-------|---2---2-4-------|---2---2-4-------|------|
-0---------------|-0---------------|-0---------------|-0---------------|------|
-----------------|-----------------|-----------------|-----------------|------|
-----------------|-----------------|-----------------|-----------------|------|
                                     I'd have a drink in my hand.......

-----2-------2---|-----2-------2---|-----0-------0---|-----0-------0---|------|
-----------3---3-|-----------3---3-|-----------3---3-|-----------3---3-|------|
---2---2-4-------|---2---2-4-------|---2---2-4-------|---2---2-4-------|------|
-0---------------|-0---------------|-0---------------|-0---------------|------|
-----------------|-----------------|-----------------|-----------------|------|
-----------------|-----------------|-----------------|-----------------|------|


-----0-------0---|-----0-------0---|-----2-------2---|-----2-------2---|------|
-----------3---3-|-----------3---3-|-----------3---3-|-----------3---3-|------|
---2---2-4-------|---2---2-4-------|---2---2-4-------|---2---2-4-------|------|
-0---------------|-0---------------|-0---------------|-0---------------|------|
-----------------|-----------------|-----------------|-----------------|------|
-----------------|-----------------|-----------------|-----------------|------|
 "Wish i could fly like everyone........

-0-0---0---0---0-0-------------|-0-0---0---0---0-0--------0-0-0---------------|
-2-2---2---3---2-2-------------|-2-2---2---3---2-2--------2-2-0---------------|
-0-0---0---0---0-0-------------|-0-0---0---0---0-0--------0-0-0---------------|
-2-2---2---2---2-2-------------|-2-2---2---2---2-2--------2-2-2---------------|
-0-0---0---0---0-0-------------|-0-0---0---0---0-0--------0-0-0---------------|
-0-0---0---0---0-0-------------|-0-0---0---0---0-0--------0-0-0---------------|
      "Same things as anyone         same things as anyone"

-----------------|-----------------|-----------------|-----------------|------|
-----3-------3---|-----3-------3---|-----3-------3---|-----3-------3---|------|
-------0-------0-|-------0-------0-|-------0-------0-|-------0-------0-|------|
---0-------0-----|---0-------0-----|---0-------0-----|---0-------0-----|------|
-2-------2-------|-2-------2-------|-2-------2-------|-2-------2-------|------|
-----------------|-----------------|-----------------|-----------------|------|
 "But you burn me up.............

-----2-------2---|-----2-------2---|-0-0---0---0---0-0------------------------|
-----------3---3-|-----------3---3-|-3-3---3---3---2-2------------------------|
---2---2-4-------|---2---2-4-------|-0-0---0---0---0-0------------------------|
-0---------------|-0---------------|-2-2---2---2---2-2------------------------|
-----------------|-----------------|-0-0---0---0---0-0------------------------|
-----------------|-----------------|-0-0---0---0---0-0------------------------|
                                               repeat verse part for verse 2.

-0-0---0---0---0-0-------------|-0-0---0---0---0-0--------0-0-0---------------|
-2-2---2---3---3-2-------------|-2-2---2---3---3-2--------2-2-0---------------|
-0-0---0---0---0-0-------------|-0-0---0---0---0-0--------0-0-0---------------|
-2-2---2---2---2-2-------------|-2-2---2---2---2-2--------2-2-2---------------|
-0-0---0---0---0-0-------------|-0-0---0---0---0-0--------0-0-0---------------|
-0-0---0---0---0-0-------------|-0-0---0---0---0-0--------0-0-0---------------|
      "Same things as anyone         same things as anyone"

-----------------|-----------------|-----------------|-----------------|------|
-----3-------3---|-----3-------3---|-----3-------3---|-----3-------3---|------|
-------0-------0-|-------0-------0-|-------0-------0-|-------0-------0-|------|
---0-------0-----|---0-------0-----|---0-------0-----|---0-------0-----|------|
-2-------2-------|-2-------2-------|-2-------2-------|-2-------2-------|------|
-----------------|-----------------|-----------------|-----------------|------|
 "But you burn me up.....

-----2-------2---|-----2-------2---|-----------------|-----------------|------|
-----------3---3-|-----------3---3-|-----3-------3---|-----3-------3---|------|
---2---2-4-------|---2---2-4-------|-------0---------|-------0-------0-|------|
-0---------------|-0---------------|---0-------0-----|---0-------0-----|------|
-----------------|-----------------|-2-------2-------|-2-------2-------|------|
-----------------|-----------------|-----------------|-----------------|------|
                                     I got good lungs.......

-----------------|-----------------|-----2-------2---|-----2-------2---|------|
-----3-------3---|-----3-------3---|-----------3---3-|-----------3---3-|------|
-------0-------0-|-------0-------0-|---2---2-4-------|---2---2-4-------|------|
---0-------0-----|---0-------0-----|-0---------------|-0---------------|------|
-2-------2-------|-2-------2-------|-----------------|-----------------|------|
-----------------|-----------------|-----------------|-----------------|------|


-0-0---0---0---0-0--||--------------------------------------------------------|
-3-3---3---3---2-2--||--------------------------------------------------------|
-0-0---0---0---0-0--||--------------------------------------------------------|
-2-2---2---2---2-2--||--------------------------------------------------------|
-0-0---0---0---0-0--||--------------------------------------------------------|
-0-0---0---0---0-0--||--------------------------------------------------------|
 Repeat from "But you burn me up.." to this point for the instrumental part.

----------------------------------------|-0-0---0---0---0-0-------0-0-0-------|
----------------------------------------|-2-2---2---3---2-2-------2-2-0-------|
----------------------------------------|-0-0---0---0---0-0-------0-0-0-------|
----------------------------------------|-2-2---2---2---2-2-------2-2-2-------|
----------------------------------------|-0-0---0---0---0-0-------0-0-0-------|
----------------------------------------|-0-0---0---0---0-0-------0-0-0-------|
 (Again repeat verse part for verse3)          "Same things as anyone

-||-----------------|-----------------|-----------------|-----------------|---|
-||-----3-------3---|-----3-------3---|-----3-------3---|-----3-------3---|---|
-||-------0-------0-|-------0-------0-|-------0-------0-|-------0-------0-|---|
-||---0-------0-----|---0-------0-----|---0-------0-----|---0-------0-----|---|
-||-2-------2-------|-2-------2-------|-2-------2-------|-2-------2-------|---|
-||-----------------|-----------------|-----------------|-----------------|---|
    "Whats the reason maybe make you feel.....

-----2-------2---|-----2-------2---|-----2-------2---|-----2-------2---||-----|
-----------3---3-|-----------3---3-|-----------3---3-|-----------3---3-||-----|
---2---2-4-------|---2---2-4-------|---2---2-4-------|---2---2-4-------||-----|
-0---------------|-0---------------|-0---------------|-0---------------||-----|
-----------------|-----------------|-----------------|-----------------||-----|
-----------------|-----------------|-----------------|-----------------||-----|
                                   (Repeat this last chorusy section to fade)
Tap to rate this tab
# A B C D E F G H I J K L M N O P Q R S T U V W X Y Z