Guitaretab - guitar tabs
Song name
# A B C D E F G H I J K L M N O P Q R S T U V W X Y Z

Stereophonics - Deadhead tab

-------------------------------------------------------------------------------
			     Deadhead - Stereophonics
-------------------------------------------------------------------------------

Tuning: Standard

e|---------------------------------------------------------------------------|
B|---------------------------------------------------------------------------|
G|--7--10--------------------------------------------------------------------|
D|--7--10--7--10-------------------------------------------------------------|
A|--5--8---7--10-------------------------------------------------------------|
E|---------5--8--------------------------------------------------------------|

e|--10--12--13--12--10-------------------------------------------------------|
B|---------------------------------------------------------------------------|
G|---------------------------------------------------------------------------|
D|---------------------------------------------------------------------------|
A|---------------------------------------------------------------------------|
E|---------------------------------------------------------------------------|

e|---------------------------------------------------------------------------|
B|---------------------------------------------------------------------------|
G|--7--3--7--5--7--3--7--5---------------------------------------------------|
D|--7--3--7--5--7--3--7--5---------------------------------------------------|
A|--5--1--5--3--5--1--5--3---------------------------------------------------|
E|---------------------------------------------------------------------------|
[ Tab from: http://www.guitaretab.com/s/stereophonics/72129.html ]
e|---------------------------------------------------------------------------|
B|---------------------------------------------------------------------------|
G|--7--7--7--7--7--7--7--7--7--7--7--1--0--1--0--1--0--9--9--9--9--9--9------|
D|---------------------------------------------------------------------------|
A|---------------------------------------------------------------------------|
E|---------------------------------------------------------------------------|

e|-------------------------------------------------------------------------------|
B|-------------------------------------------------------------------------------|
G|--9--5-------------------------------------------------------------------------|
D|--9--5-------------------------------------------------------------------------|
A|--7--3-------------------------------------------------------------------------|
E|-------------------------------------------------------------------------------|

e|---------------------------------------------------------------------------------|
B|---------------------------------------------------------------------------------|
G|--7--5---------------------------------------------------------------------------|
D|--7--5--3--5---------------------------------------------------------------------|
A|--5--3--3--5---------------------------------------------------------------------|
E|--------1--3---------------------------------------------------------------------|

| /  slide up
| \  slide down
| h  hammer-on
| p  pull-off
| ~  vibrato
| +  harmonic
| x  Mute note
===============================================================================
Related for Deadhead tab