Song name
# A B C D E F G H I J K L M N O P Q R S T U V W X Y Z

Steve Harley - Make Me Smile tab

#----------------------------------PLEASE NOTE---------------------------------#
#This file is the author's own work and represents their interpretation of the #
#song. You may only use this file for private study, scholarship, or research. #
#------------------------------------------------------------------------------##


Gtr I (E A D G B E) - 'Untitled'

  Q=138
  Gtr I
                               ~~           ~~~~~~~~~~
         |-3-|                                         |-3-| |-3-|
  H    a q q q   a E S E S S S Q.   S S   S S +E  +Q   E E E E E E
|--------------|------------------------|--------------------------|
|--------------|------------------------|--------------------------|
|--------------|------------------------|--------------------------|
|------5s7-5-7-|-5s7---5---7-7-7----5h7-|-5-5-(5)-(5)----5-------5-|
|--------------|------------------------|------------------8-7-8---|
|--------------|------------------------|--------------------------|


        ~~~~~~                  ~~~~~~
  S S S S +Q   E S S E E   Q  E E +H       H    a Q  E E
|------------------------|---------------|---------------|
|------------------------|---------------|---------------|
|------------------------|---------------|-----------5-5-|
|-3p2p0-3-(3)--0-0h2p0-0-|-0-------------|------5s7------|
|------------------------|----3-3-(3)----|---------------|
|------------------------|---------------|---------------|


                       ~~~~~~~~     ~
  E E E +E  E Q   E    Q   +E  S  S E  E  E  E
|-------------------|-----------------10s12-12-|
|-------------8--10-|-10--(10)-8h10p8----------|
|-5-7-7-(7)s9-------|--------------------------|
|-------------------|--------------------------|
|-------------------|--------------------------|
|-------------------|--------------------------|


                              |--3--|
   Q   +E   S  S  E  E  S  S  S  S  S
|-12--(12)-12h13h15-15-15-15-15-15-15--|
|--------------------------------------|
|--------------------------------------|
|--------------------------------------|
|--------------------------------------|
|--------------------------------------|


   |--3--|  |--3--|  |--3--|  |--3--|
   S  S  S  S  S  S  S  S  S  S  S  S  S  S  E  E  E
|-15-15-15-15-15-15-15-15-15-15-15-15-15-15-15-13-13-|
|----------------------------------------------------|
|----------------------------------------------------|
|----------------------------------------------------|
|----------------------------------------------------|
|----------------------------------------------------|


   E  E  +E  Q.    E  E    E  E  S  S  S  S  E  E E S  S
|-13p12-(12)------10----|---------------------------------|
|--------------------13-|---------------------------------|
|-----------------------|-12-12-12-12-12-12-12-10---9h10--|
|-----------------------|---------------------------------|
|-----------------------|---------------------------------|
|-----------------------|---------------------------------|


                        ~~                    ~
   S  S Q   S  S  a  E  Q  E    E S  E S  S S Q  E a e   E S E S E E E Q
|----------------------------|-13---12---10p8-7----5h7-|-5----------------|
|----------------------------|-------------------------|-----8---6-5-6h8--|
|-12-10-9--------------------|-------------------------|------------------|
|----------10-10-10s12-12----|-------------------------|------------------|
|----------------------------|-------------------------|------------------|
|----------------------------|-------------------------|------------------|


                                  ~~
      |-3-| |-3-| |-3-|
  S S S S S S S S S S S E E E E   Q.   S S E E E E   Q   H.
|-------------------------------|------------------|-----------*|
|-8-8-8-8-8-8-8-8-8-8-8-8-6-5---|------------------|-----------*|
|-----------------------------7-|-7----5p4-5-5-4---|-----------*|
|-------------------------------|----------------5-|-----------*|
|-------------------------------|------------------|-5\--------*|
|-------------------------------|------------------|-----------*|


Duration Legend
---------------
W - whole; H - half; Q - quarter; E - 8th; S - 16th; T - 32nd; X - 64th; a - acciaccatura
+ - note tied to previous; . - note dotted; .. - note double dotted
Uncapitalized letters represent notes that are staccato (1/2 duration)
Irregular groupings are notated above the duration line
Duration letters will always appear directly above the note/fret number it represents the
duration for.  Duration letters with no fret number below them represent rests.  Multi-
bar rests are notated in the form Wxn, where n is the number of bars to rest for.  Low
melody durations appear below the staff

Tablature Legend
----------------
 h   - hammer-on
 p   - pull-off
 b   - bend
 pb  - pre-bend
 r   - bend release (if no number after the r, then release immediately)
 /\  - slide into or out of (from/to "nowhere")
 s   - legato slide
 S   - shift slide
  - natural harmonic
[n]  - artificial harmonic
n(n) - tapped harmonic
 ~   - vibrato
 tr  - trill
 T   - tap
 TP  - trem. picking
 PM  - palm muting
\n/  - tremolo bar dip; n = amount to dip
 \n  - tremolo bar down
 n/  - tremolo bar up
/n\  - tremolo bar inverted dip
 =   - hold bend; also acts as connecting device for hammers/pulls
 <>  - volume swell (louder/softer)
 x   - on rhythm slash represents muted slash
 o   - on rhythm slash represents single note slash

Misc Legend
-----------
 |  - bar
||  - double bar
||o - repeat start
o|| - repeat end
*|  - double bar (ending)
 :  - bar (freetime)
 $  - Segno
 &  - Coda
Tempo markers -  = BPM(8/16=s8/s16), where s8 = swing 8ths, s16 = swing 16ths


***************************************************************************************
* Generated using Power Tab Editor by Brad Larsen - http://powertab.guitarnetwork.org *
***************************************************************************************
Tap to rate this tab
 
# A B C D E F G H I J K L M N O P Q R S T U V W X Y Z