Song name
# A B C D E F G H I J K L M N O P Q R S T U V W X Y Z

Steve Miller Band - True Fine Love tab

-------------------------------------------------------------------------------
			     True Fine Love - Steve Miller Band
-------------------------------------------------------------------------------
Tabbed by:Oddkid85
Email:Chongbeef@aol.com

Tuning: standard

First tab, so bear with it.

You need an octave pedal and a little bit of distortion.

   1:24
e|--------------------------------------------------------------------------------|
B|--------------------------------------------------------------------------------|
G|--------------------------------------------------------------------------------|
D|------8-8--10--10/12--10--8-----8-8--10--10/12--10--8h10p8~~-----------8--------|
A|10p8-------------------------10--------------------------------10p8h10----------|
E|--------------------------------------------------------------------------------|

e|--------------------------------------------------------------------------------|
B|--------------------------------------------------------------------------------|
G|--------------------------------------------------------------------------------|
D|-----8---10--10/12--10--8h10p8----8-8-10--10/12--10--8h10p8------------------8--|
A|8p10----------------------------10-----------------------------8h10--10p8h10----|
E|--------------------------------------------------------------------------------|
Tap to rate this tab
 
# A B C D E F G H I J K L M N O P Q R S T U V W X Y Z