Guitaretab - guitar tabs
Song name
# A B C D E F G H I J K L M N O P Q R S T U V W X Y Z

Stevie Ray Vaughan - Life By The Drop tab

Life By The Drop
Stevie Ray Vaughan

12 String acoustic, Standard tuning.

This song is pretty easy, especially for SRV. Listen to the song in order to get
the timing down, as the intro and third chorus are the hardest parts of the song.

Intro
E| |-------------------------------------|
B| |-------------------------------------|
G|4|---------------0-----------------0h2-|
D|4|------0--1--2-----0h1p0----0---------|
A| |-0-h3-------------------3-----3------|
E| |-------------------------------------|

E| |-------------------------------------|
B| |-------------------------------------|
G|4|-0--------------------------------2--|
D|4|----2--1--0h1p0----0-----0-----------|
A| |----------------3-----3-----3--0-----|
E| |-------------------------------------|


Riff A (this is played after the intro and after each chorus. The first half of the
second measure is sometimes played as the second half of the first measure. Listen
to the song to figure it out.)
E| |--------------------------|-----------------------------|
B| |--------------------------|-----------------------------|
G|4|--------------------------|-------------2---------------|
D|4|--2--2--4--4--2--2--4--4--|--2--2-----------2--2--4--4--|
A| |--0--0--0--0--0--0--0--0--|--0--0--3p0------0--0--0--0--|
E| |--------------------------|-----------------------------|


Verse 1 & 2
E| |--------------------------|--------------------------|
B| |--------------------------|--------------------------|
G|4|--------------------------|--------------------------|
D|4|--2--2--4--4--2--2--4--4--|--------------------------|
A| |--0--0--0--0--0--0--0--0--|--2--2--4--4--2--2--4--4--|
E| |--------------------------|--0--0--0--0--0--0--0--0--|
       Hello There,              My Old Friend
       Iíve been down that road in those worn out shoes

E| |--------2--2--------2--2--|--------------------------|
B| |--------2--2--------2--2--|--------------------------|
G|4|--------x--x--------x--x--|--2--2--4--4--2--2--4--4--|
D|4|--------4--4--------4--4--|--0--0--0--0--0--0--0--0--|
A| |--4--4--4--4--4--4--4--4--|--------------------------|
E| |--2--2--2--2--2--2--2--2--|--------------------------|
      Not so long ago, it was    still the end
     ĎTalkin Ďbout good things   and singiní the blues

E| |--------------------------|--------------------------|
B| |--------------------------|--------------------------|
G|4|--------------------------|--------------------------|
D|4|--2--2--4--4--2--2--4--4--|--------------------------|
A| |--0--0--0--0--0--0--0--0--|--2--2--4--4--2--2--4--4--|
E| |--------------------------|--0--0--0--0--0--0--0--0--|
      We played outside in the   pouriní rain
      You went your way and I    Stayed behind

E| |--------2--2--------2--2--|--------------------------|
B| |--------2--2--------2--2--|--------------------------|
G|4|--------x--x--------x--x--|--2--2--4--4--2--2--4--4--|
D|4|--------4--4--------4--4--|--0--0--0--0--0--0--0--0--|
A| |--4--4--4--4--4--4--4--4--|--------------------------|
E| |--2--2--2--2--2--2--2--2--|--------------------------|
      On our way up the road     we started over again
      We both knew it was just   a matter of time

Chorus 1
E| |--------2--2--------2--2--|---------------------------|
B| |--------2--2--------2--2--|---------------------------|
G|4|--------x--x--------x--x--|--2--2--4--4---------------|
D|4|--------4--4--------4--4--|--0--0--0--0---------------|
A| |--4--4--4--4-----4--4--4--|--------------2--2--4--4---|
E| |--2--2--2--2-----2--2--2--|--------------0--0--0--0---|
            Liviní a Dreamís    just like youíre on top

E| |--------2--2--------2--2--|---------------------------|
B| |--------2--2--------2--2--|---------------------------|
G|4|--------x--x--------x--x--|--2--2--4--4---------------|
D|4|--------4--4--------4--4--|--0--0--0--0---------------|
A| |--4--4--4--4-----4--4--4--|--------------2--2--4--4---|
E| |--2--2--2--2-----2--2--2--|--------------0--0--0--0---|
            My mind is achiní   and Lord, it wonít stop

E| |--2--------------1-------| |-----------|
B| |--2--------------1-------| |-----5-----|
G|4|--x--------------2-------|2|-----4-----|
D|4|--4--------------0-------|4|-----2-----|
A| |--4--------------0-------| |-----2-----|
E| |--2----------------------| |-----0-----|
       Thatís how it happens  liviní life by the drop


[ Tab from: http://www.guitaretab.com/s/stevie-ray-vaughan/118623.html ]
Verse 3
E| |--------------------------|--------------------------|
B| |--------------------------|--------------------------|
G|4|--------------------------|--------------------------|
D|4|--2--2--4--4--2--2--4--4--|--------------------------|
A| |--0--0--0--0--0--0--0--0--|--2--2--4--4--2--2--4--4--|
E| |--------------------------|--0--0--0--0--0--0--0--0--|
        No Wasted time, weíre    alive today  

                                     Let ring-----------|
E| |--------2--2--------2--2--|--------2--2-------2------|
B| |--------2--2--------2--2--|--------1--1---------1----|
G|4|--------x--x--------x--x--|--2--2--2--2-----2------2-|
D|4|--------4--4--------4--4--|--0--0--0--0-----0--------|
A| |--4--4--4--4-----4--4--4--|--------------------------|
E| |--2--2--2--2-----2--2--2--|--------------------------|
         Churning up the past,  Thereís no easier way

E| |--------------------------|--------------------------|
B| |--------------------------|--------------------------|
G|4|--------------------------|--------------------------|
D|4|--2--2--4--4--2--2--4--4--|--------------------------|
A| |--0--0--0--0--0--0--0--0--|--2--2--4--4--2--2--4--4--|
E| |--------------------------|--0--0--0--0--0--0--0--0--|
      Timeís been between us,    a means to an end

E| |--2-------------------------------|--2------------------2--2--0--|
B| |--2-------------------------------|--1------------------1--1--0--|
G|4|--x-------------------------------|--2------------------2--2--0--|
D|4|--4-------------------------------|--0------------------0--0--0--|
A| |--4-------------------------------|--0------------------0--0--0--|
E| |--2-------------------------------|---------------------------0--|
      God, itís good to be here walkiní Together, my friend



Chorus 2
E| |--------2--2-----------|---------------------------|
B| |--------2--2-----------|---------------------------|
G|4|--------x--x-----------|---------------------------|
D|4|--------4--4-----------|--0--2--4ó2----2ó2h4p2-----|
A| |--4--4--4--4-----------|------------------------4--|
E| |--2--2--2--2-----------|---------------------------|
     Youíre Liviní a Dream   







E| |--------2--2-----------------|---------------------------|
B| |--------2--2-----------------|---------------------------|
G|4|--------x--x-----------------|---------------------------|
D|4|--------4--4-----------------|--0--2--4ó2----2ó2h4p2-----|
A| |--4--4--4--4-----------------|------------------------4--|
E| |--2--2--2--2-----------------|---------------------------|
         My mindís stopped achiní

E| |--2--------------1-------| |-----------|
B| |--2--------------1-------| |-----5-----|
G|4|--x--------------2-------|2|-----4-----|
D|4|--4--------------0-------|4|-----2-----|
A| |--4--------------0-------| |-----2-----|
E| |--2----------------------| |-----0-----|
       Thatís how it happens  liviní life by the drop

E| |---------------------------|--------------------------|
B| |---------------------------|--------------------------|
G|4|------------------------2--|--------------------------|
D|4|--2--2--4--4--2--2---------|--2--2--4--4--2--2--4--4--|
A| |--0--0--0--0--0--0--3p0----|--0--0--0--0--0--0--0--0--|
E| |---------------------------|--------------------------|


E| |--2--------------1-------| |-----------|
B| |--2--------------1-------| |-----5-----|
G|4|--x--------------2-------|2|-----4-----|
D|4|--4--------------0-------|4|-----2-----|
A| |--4--------------0-------| |-----2-----|
E| |--2----------------------| |-----0-----|
       Thatís how it happens  liviní life by the drop

E| |---------------------------|--------------------------|
B| |---------------------------|--------------------------|
G|4|------------------------2--|--------------------------|
D|4|--2--2--4--4--2--2---------|--2--2--4--4--2--2--4--4--|
A| |--0--0--0--0--0--0--3p0----|--0--0--0--0--0--0--0--0--|
E| |---------------------------|--------------------------|

E| |--2--------------1-------| |-----------|
B| |--2--------------1-------| |-----5-----|
G|4|--x--------------2-------|2|-----4-----|
D|4|--4--------------0-------|4|-----2-----|
A| |--4--------------0-------| |-----2-----|
E| |--2----------------------| |-----0-----|
       Thatís how it happens  liviní life by the drop

E| |---------------------------|--------------------------|
B| |---------------------------|--------------------------|
G|4|------------------------2--|--------------------------|
D|4|--2--2--4--4--2--2---------|--2--2--4--4--2--2--4--4--|
A| |--0--0--0--0--0--0--3p0----|--0--0--0--0--0--0--0--0--|
E| |---------------------------|--------------------------|



Thatís it! All in all, itís pretty easy. This is my first tab, so please,
please, PLEASE give me some feedback. You can E-mail me at Hotfox_07@yahoo.com.

If you're copying this into word, I reccomend you use 8 point Courier New font.
Related for Life By The Drop tab
Life By The Drop chords by Stevie Ray Vaughan