Song name
# A B C D E F G H I J K L M N O P Q R S T U V W X Y Z

Stevie Ray Vaughan - Hide Away tab

                          Hide Away
                SRV tabbed by Jose Villarreal
This is from the “Live at Montreux” DVD ON July 17,1982. Tuned down Half a Step as
with Srv. I hope UG accepts this tab, I worked really hard on it and they’ve been
a
of my SRV tabs. I haven’t seen this tab anywhere on the net. I hope it helps someone out
Good Luck!!!
E|-------0-2-2s4---------------0-----0-----0-----0~---------------------------|
B|-0-0h2-------------------------0h2---0h2---0h2-0~---------------------------|
G|---------------------------------------------------2p0-0h1p0h1--------------|
D|---------------------------------------------------------------0------------|
A|----------------2-2-4-4-2-2------------------------------------0-2-2-4------|
E|----------------0-0-0-0-0-0--------------------------------------0-0-0------|

E|---------------------------------------0-----0-2s4~-2p0---0---------0-2-----|
B|-----------------------------------------0h2------------2-----------0-2-0---|
G|-------------------0------------------------------------------------0-2-0---|
D|-0--------0--------0-2-2-4-4-5-5-4-4-2----------------------0-----------0-1-|
A|-0-2-2-4--0-2-2-4----0-0-0-0-0-0-0-0-0----------------------0-2-2-4-------2-|
E|---0-0-0----0-0-0---------------------------------------------0-0-0-------2-|

E|--------0-----0-0h2-2-2-0-2s4~-0-0h2p0------0----0----0~---------------0----|
B|----------0h2--------------------------2-0h2--0h2-0h2-0~------------3----3--|
G|---------------------------------------------------------2p0-0h1-/4--4-----4|
D|0---------------------------------------------------------------------------|
A|0-2-2-4---------------------------------------------------------------------|
E|--0-0-0---------------------------------------------------------------------|

E|--------0----0-----0---------0-----0-----0-----0~-------------------0------|
B|--------0-3~---0h2---0trill2---0h2---0h2---0h2-0~----------------3----3----|
G|2p0-0h1-------------------------------------------2p0-0h1p0h1-/4--4-----4--|
D|---2-----------------------------------------------------------------------|
A|---------------------------------------------------------------------------|
E|---------------------------------------------------------------------------|

E|----------0-2------0-----0---------0-----0-----0-----0-----------------------|
B|----------0-2-0----0-0h2---0trill2---0h2---0h2---0h2-------------------------|
G|2p0---0h1-0-2-0-0h1------------------------------------2p0-0h1---------------|
D|----2----------------------------------------------------------0-------------|
A|---------------------------------------------------------------0-2-2-4-------|
E|----------------------------------------------------------0-0-0--------------|

E|-0-2-------------0-----0-0h2-2-2-0-2s4~-2-0h2p0------0-----0-----0------------|
B|-0-2-0-------------0h2---------------------------0h2---0h2---0h2--------------|
G|-0-2-0-1-----------------------------------------------------------2p0-0h1----|
D|-------2-0--------------------------------------------------------------------|
A|-------2-0-2-2-4--------------------------------------------------------------|
E|-----------0-0-0--------------------------------------------------------------|
                                          |--------------Repeat-----------------|
E|--------0--------------0----0-----0-------------------------------------------|
B|----3-----3------------0----0-----0-------------------------------------------|
G|-/4---4-----4-2p0--0h1---2~---2b3---------------------------------------------|
D|------------------2-------------------------------------------0h2~~-----------|
A|-------------------------------------2---2-2-2h4---2-5-2-4-2------------------|
E|-------------------------------------0---0-0-0-0---0-0-0-0-0------------------|

E|-------------------------3~-----------------------------------------------|
B|-----------------------0-2~-----------------------------------------------|
G|-----------------------0-2~-----------------------------------------------|
D|-2---2-2h4---2-5-2-4-2----------------------------0h2~--------------------|
A|-0---0-0-0---0-0-0-0-0------2---2-2h4---2-5—2-4-2-------2---2-2h4---2-5-2-|
E|----------------------------0---0-0-0---0-0-0-0-0-------0---0-0-0---0-0-0-|

                                                                  |----7x------|
E|-----------------------------------3~-----------------------0----------------|
B|---------------------------------0-2~-----------------------0----------------|
G|---------------------------------0-2~-----------------------0----------------|
D|-----0h2~--2---2-2h4---2-5-2-4-2---------------------------------------------|
A|-4-2-------0---0-0-0---0-0-0-0-0------2—--2-2h4---2-5-2-4-2---2--2-----2-2---|
E|-0-0----------------------------------0---0-0-0---0-0-0-0-0---0--0-3/4---0---|
          |----4x=---|   |-----4x----------------------------------------------|
E|-----------------------------------------------------------------------------|
A|-----------------------------------------------------------------------------|
G|-----------------------------------------------------------------------------|
D|---------2--2-----2-2----------------------------------0-1--4-4-6p4-4--------|
A|-2-----0-0--0-3/4---0---2--2------2-2---2-2-----2--2-2--------------0--------|
E|-0-3/4------------------0--0--3/4---0---0-0-3/4------------------------------|

2x
E|----------------------------------------------(--12---)-12\-9-7-4-2-0-2/4-2-|
B|----------------------------------------------(--9----)—-9\-----------------|
G|---------------------2-----3-----4---5~-3-2~--(--11-7x)-11\-9-7-4-2-0-2/4-2-|
D|-2-2------2p0----------1-----2-----3----2-1~--(--12---)-12\-----------------|
A|-0-0-3-4------0-2--2-----3-----4--------3-2~--------------------------------|
E|----------------0-----------------------------------------------------------|

E|-0-4-2-0-2/4----------------------0-----0-----0----------------------0------|
B|------------------------------------0h2---0h2--------------------3-----3----|
G|-0-4-2-0-2/4-------------------------------------2p0-0h1p0h1--/4---4-----4--|
D|--------------2-2-4-4-5-5-4-4-2-2-------------------------------------------|
A|--------------0-0-0-0-0-0-0-0-0-0-------------------------------------------|
E|----------------------------------------------------------------------------|

E|-----------0-2----------0-----0-0h2-2-2-0-2s4~-2-0h2p0-------0-----0-----0-------------------------------------|
B|-----------0-2-0----------0h2--------------------------2-0h2---0h2---0h2---------------------------------------|
G|-2p0---0h1-0-2-0-0h1p0h1---------------------------------------------------------------------------------------|
D|-----2---------------------------------------------------------------------------------------------------------|
A|---------------------------------------------------------------------------------------------------------------|
E|---------------------------------------------------------------------------------------------------------------|

 |--------2x--------------------------------------------------------------------|
E|---------------------0--------------0----0------------------------------------|
B|-----------------3-----3------------0----0------------------------------------|
G|-2p0-0h1p0h1--/4---4-----4-2p0---0h1--2~~-2-----------------------------------|
D|-------------------------------2-----------------------------2-2-----2-2-4-2--|
A|--------------------------------------------2-2----2-2-4-2---0-0-3-4-0-0-0-0--|
E|--------------------------------------------0-0-34-0-0-0-0--------------------|
     |------2x------------------------------------------------------------------|
E|-------------------------------------------------------------------0----------|
B|-------------------------------------------------------------------0----------|
G|-------------------------------------------------------------------0-2~-------|
D|---------------------0-1-4-4-6-4--2-2-----2-2-4-2-----------------------------|
A|-2-2-----2-2-4-2—2-2--------------0-0-3-4-0-0-0-0--2-2-----2-2-4-2------------|
E|-0-0-3-4-0-0-0-0-----------------------------------0-0-3-4-0-0-0-0------------|
|---------4x--------|  |-------2x---------|  |--------2x------------------------|
E-------------------------------------------------------------------------------|
B-------------------------------------------------------------------------------|
G----------------------------------2--------------------------------------4-----|
D---------------2----2-2-----2-2-4---2-----------------2--------0-1-4-4-6---4---|
A-2-2-----2-2-4---2--0-0-3-4-------------2-2-----2-2-4---2--2-2-----------------|
E-0-0-3-4--------------------------------0-0-3-4--------------------------------|

      |---2x------------------------------------------------------------------|
e|---------------------------------------------------(--12---)-11\------------|
B|---------------------------------------------------(---9---)—-9\------------|
G|---------------2---------2-----3------4---5~--3-2~-(--11-7x)-11\------------|
D|-2-2-----2-2-4---2---------1-----4------3-----2-1~-(--12---)-12\------------|
A|-0-0-3-4------------2--2-----3------4---------3-2~--------------------------|
E|--------------------0-------------------------------------------------------|
                                 |---2x---------------------------------------|
e|---------------------------------(--12---)-12\------------------------------|
B|---------------------------------(--11---)—-9\------------------------------|
G|-2b3r2p0-2~----------------------(---9-7x)-11\-14b16r14p12----14~-----------|
D|------------2-0---------------2--(--12---)-12\-------------14-----14-12-----|
A|----------------2-1-0h1p0-----------------------------------------------14--|
E|--------------------------3-0---0-------------------------------------------|
                           |---2x---------------------------------------------|
e|---------------------12~-(--12---)-12~--------------------------------------|
B|---------------------11~-(---9---)--9~--------------------------------------|
G|----------------------9~-(--11-7x)-11~--------------------------------------|
D|---------------------12~-(--12---)-12~--------------------------------------|
A|-13-12h13p12----------------------------------------------------------------|
E|-------------15-12----------------------------------------------------------|
Then he goes on to Rude Mood
Tap to rate this tab
# A B C D E F G H I J K L M N O P Q R S T U V W X Y Z