Song name
# A B C D E F G H I J K L M N O P Q R S T U V W X Y Z

Still Remains - Recovery tab

-----------------------------------------------------------------------------
			                  Recovery - Still Remains
-----------------------------------------------------------------------------
Tabbed by:Jeremy "Da Jerm" Herron
Email: jlhwarlock3@hotmail.com


Tuning: Drop C#


Hello all....finally!!!! a tab for this song...took me 20 minutes 
today to get the basics of it.....email all concerns, corrections, etc. 
to jlhwarlock3@hotmail.com. put in subject line "Still Remains". 
i'm still missing some little fills and stuff, but for the most 
part everything should be good. The tab is relatively simple if 
you're listening to the song while playing it or if you know the song
really well. and this tab would be long as hell if i had to put every 
note in the song on it, so this is just a basic lay out. If i missed any 
lead parts please let me know. i know of one for a fact, but i couldn't 
hear it very well in the recordings. but once i figure it out this should
 soon be updated. peace, love, and chicken grease. be easy! enjoy!

D#|-------------------------------------------------------------------------|
A#|-------------------------------------------------------------------------|
F#|-------------------------------------------------------------------------|
C#|------7-7-777-7-77-7777-5-5-5553~----------------------------------------|
G#|------8-8-888-8-88-8888-7-7-7775~----------------------------------------|
C#|-------------------------------------------------------------------------|


D#|-------------------------------------------------------------------------|
A#|-------------------------------------------------------------------------|
F#|-------------------------------------------------------------------------|
C#|-------------------------------------------------------------------------|
G#|--00-8-00-5-0-7-00-3-0-3-0-3h5--00-8-00-5-0-7-00-3-0-3-0-3h5-------------|
C#|--00---00---0---00---0---0------00---00---0---00---0---0-----------------|



D#|-------------------------------------------------------------------------|
A#|-------------------------------------------------------------------------|
F#|-------------------------------------------------------------------------|
C#|------------------------------------------------------8p7p5--------------|
G#|--55-8-55-5-5-7-55-3-5-3-5-3h5--55-8-55-5-5-7-5-5-7-8-------8p7p5--------|
C#|--55---55---5---55---5---5------55---55---5---5--------------------------|


D#|-------------------------------------------------------------------------|
A#|-------------------------------------------------------------------------|
F#|-------------------------------------------------------------------------|
C#|--888-----7-------555-----7--------000-000-000-000-000-----7-------------|
G#|--888-7-8---8-7-5-555-7-8---8-7-5--000-000-000-000-000-7-8---8-7-5-------|
C#|--888-------------555--------------000-000-000-000-000-------------------|



D#|-------------------------------------------------------------------------|
A#|-------------------------------------------------------------------------|
F#|-------------------------------------------------------------------------|
C#|-888-----7-------555-----7--------000-000-000-000-000------7-------------|
G#|-888-7-8---8-7-5-555-7-8---8-7-5--000-000-000-000-000-8-10---10-8-10-----|
C#|-888-------------555--------------000-000-000-000-000--------------------|




D#|-------------------------------------------------------------------------|
A#|-------------------------------------------------------------------------|
F#|-------------------------------------------------------------------------|
C#|-888-------10---------555-----7--------000-000-000-000-000-----7---------|
G#|-888-10-12----12-10-8-555-7-8---8-7-5--000-000-000-000-000-7-8---8-7-5---|
C#|-888------------------555--------------000-000-000-000-000---------------|




D#|-------------------------------------------------------------------------|
A#|-------------------------------------------------------------------------|
F#|-------------------------------------------------------------------------|
C#|-888-----7-------555-----7--------000-0-0-000-0-0------------------------|
G#|-888-7-8---8-7-5-555-7-8---8-7-5--000-0-0-000-0-0------------------------|
C#|-888-------------555--------------000-0-0-000-0-0------------------------|


D#|-------------------------------------------------------------------------|
A#|-------------------------------------------------------------------------|
F#|-------------------------------------------------------------------------|
C#|--8----------------------------------------------------------------------|
G#|--8  x32-----------------------------------------------------------------|
C#|--8----------------------------------------------------------------------|
  |
  |
  |
D#|-------------------------------------------------------------------------|
A#|-------------------------------------------------------------------------|
F#|---12--10--10----------14--14----------9-999--9/10-----------------------|
C#|----x---x--x-- x16------x---x--x6------x-xxx--x/x------------------------|
G#|---10---8--8-----------12--12----------7-777--7/8------------------------|
C#|-------------------------------------------------------------------------|


D#|-------------------------------------------------------------------------|
A#|-------------------------------------------------------------------------|
F#|-------------------------------------------------------------------------|
C#|-------------------------------------------------------------------------|
G#|-0-000---00000---0-000---00000-------------------------------------------|
C#|-0-000---00000---0-000---00000-------------------------------------------|



D#|-------------------------------------------------------------------------|
A#|-------------------------------------------------------------------------|
F#|-------------------------------------------------------------------------|
C#|--000000000-----3-----5/7-7---000000000---3-----7-5-2--------------------|
G#|--000000000--------5----------000000000------5---------------------------|
C#|--000000000-------------------000000000----------------------------------|


D#|-------------------------------------------------------------------------|
A#|-------------------------------------------------------------------------|
F#|-------------------------------------------------------------------------|
C#|-333333333----3-----5/7-7---555555555---7---8-7-3------------------------|
G#|-333333333-------5----------555555555-----5------------------------------|
C#|-333333333------------------555555555------------------------------------|





D#|-------------------------------------------------------------------------|
A#|-------------------------------------------------------------------------|
F#|-------------------------------------------------------------------------|
C#|----------------------7h8---7h8h10----------------------7h8---5h7--------|
G#|-0-0-000-0-000-0-00------8-----------0-0-000-0-000-0-00----8-----7-------|
C#|-0-0-000-0-000-0-00------------------0-0-000-0-000-0-00------------------|


D#|-------------------------------------------------------------------------|
A#|-------------------------------------------------------------------------|
F#|-------------------------------------------------------------------------|
C#|---3---2---7---8----5---3------------------------------------------------|
G#|---5---3---8---10---7---5------------------------------------------------|
C#|-------------------------------------------------------------------------|


D#|-------------------------------------------------------------------------|
A#|-------------------------------------------------------------------------|
F#|-------------------------------------------------------------------------|
C#|----7----10--------7----5------------------------------------------------|
G#|----8----12--------8----7------------------------------------------------|
C#|-------------------------------------------------------------------------|





D#|-------------------------------------------------------------------------|
A#|-------------------------------------------------------------------------|
F#|-------------------------------------------------------------------------|
C#|---8---3------0----------------------------------------------------------|
G#|---8---3------0----------------------------------------------------------|
C#|---8---3------0----------------------------------------------------------|


D#|-------------------------------------------------------------------------|
A#|-------------------------------------------------------------------------|
F#|-------------------------------------------------------------------------|
C#|--888-----7-------555-----7--------000-000-000-000-000-----7-------------|
G#|--888-7-8---8-7-5-555-7-8---8-7-5--000-000-000-000-000-7-8---8-7-5-------|
C#|--888-------------555--------------000-000-000-000-000-------------------|




D#|-------------------------------------------------------------------------|
A#|-------------------------------------------------------------------------|
F#|-------------------------------------------------------------------------|
C#|-------------------------------------------------------------------------|
G#|-000-000-000-000-000---000-000-000-000-000--000-000-000-000-000----------|
C#|-000-000-000-000-000---000-000-000-000-000--000-000-000-000-000----------|



************************************

| /   slide up
| \   slide down
| h   hammer-on
| p   pull-off
| ~   vibrato
| +   harmonic
| x   Mute note
| b   Bend
| pb  Pre-bend
| br  Bend release
| pbr Pre-bend release
| brb Bend release bend

************************************
Tap to rate this tab
 
# A B C D E F G H I J K L M N O P Q R S T U V W X Y Z