Stone Sour - Hesitate tab

Stone Sour - Hesitate
(standard tuning)


Verse

     Bb      C       Dm        A (slide to Bb)

E -------|-------|--------|-----------|
B -------|-------|--------|-----------|
G ---3---|---5---|---7----|-----------|
D --(3)--|--(5)--|--(7)---|---7-----8-|
A ---1---|---3---|---5----|--(5)------|(6)
E -------|-------|--------|---5-----6-|
(at the beginning, i donīt use the string in brackets)

Chorus
           Bb                  Bb/A        G
E ----------------------------------------------------------|
B ----------------------------------------------------------|
G ----------------------------------------------------------|
D --8-8-8-8-8-8-8-8-8-8-8-8--8--8--5-5-5-5-5-5-5-5-5-5-5-5--|
A --8-8-8-8-8-8-8-8-8-8-8-8--8--8--5-5-5-5-5-5-5-5-5-5-5-5--|
E --6-6-6-6-6-6-6-6-6-6-6-6--6--5--3-3-3-3-3-3-3-3-3-3-3-3--|

    D      Eb                     Bb
E ---------------------------------------|
B ---------------------------------------|
G -7-8--8-8-8-8-8-8-8-8-8-8-8-8----------|
D -7-8--8-8-8-8-8-8-8-8-8-8-8-8--8-8-8---| ......
A -5-6--6-6-6-6-6-6-6-6-6-6-6-6--8-8-8---| ......
E -------------------------------6-6-6---| ......


Vers

Bb   C Dm            Bb    C Dm
You        were my fire

     Bb       C Dm                       A       Bb
so I burned        til' there was nothing left of me

Bb   C Dm                    Bb    C Dm
I,          I touched your face

             Bb   C Dm          A           Bb
I held you close           Til' I could barely breath


Bb   C Dm                Bb    C Dm
Why            give me hope

             Bb    C Dm             A           Bb
then give me up,          just to be the death of me?

A             Bb
Save the rest of me


Chorus (use powerchords/tabs)


         Bb
Cause' I see you

      Bb/A   G        D  Eb          Bb     Eb
but I can't feel you anymore, so go away

Bb
I need you,

     Bb/A   G        D  Eb          Bb     Eb
but I can't need you anymore, You hesitate


Vers

Now, now and then you come around
like there's something left for me
You were one, ooh, you were everything
I'm still here but I'll just keep the rest of me


Chorus

         Bb
Cause' I see you

      Bb/A   G        D  Eb          Bb     Eb
but I can't feel you anymore, so go away

Bb
I need you,

     Bb/A   G        D  Eb          Bb     Eb
but I can't need you anymore, You hesitate


Solo


E-----------------------------------------|
B----15/16/15-----------------------------|
D--------------15-------------------------|
G-----------------15-13-12-13-15-13-12----|
A-----------------------------------------|
E-----------------------------------------|

E-----------------------------------------------------------|
B--------15/16/15-------------------------------------------|
D------------------15---------------------------------------|
G----------------------15-13-12-13-15-17-15-13/15/13 12-13--|
A-----------------------------------------------------------|
E-----------------------------------------------------------|

E--------------------------------------------------|
B----15/16/15--------------------------------------|
D-------------15----------------------17/15--14-14-|
G----------------15-13-12-13-15-13-12--------------|
A-------------------------------------15/13--12-12-|
E--------------------------------------------------|

Bridge (use Powerchords)

Eb F G
   Could we never make it?

Eb F G
   You hesitated

Eb F G         F
     Oh, I don't believe

         Bb
that I see you

      Bb/A   G        D  Eb          Bb     Eb
but I can't feel you anymore, so go away

Bb
I need you,

     Bb/A   G        D  Eb          Bb     Eb
but I can't need you anymore, You hesitate


         Bb
Cause' I see you

      Bb/A   G        D  Eb          Bb     Eb
but I can't feel you anymore, so go away

Bb
I need you,

     Bb/A   G        D  Eb          Bb     Eb
but I can't need you anymore, You hesitate

You were my fire
so I burned, now there's nothing left of me


Tabbed by: f0nsl
Mail: thomas10383@web.de
Tap to rate this tab
 
# A B C D E F G H I J K L M N O P Q R S T U V W X Y Z