Song name
# A B C D E F G H I J K L M N O P Q R S T U V W X Y Z

Stone Sour - Sillyworld tab

-------------------------------------------------------------------------------
			     "Sillyworld" - Stone Sour
-------------------------------------------------------------------------------


Tabbed by: [travis]
Email: syn_gates_punk14@msn.com

Tuning: down 1/2 step (Eb Ab Db Gb Bb Eb)


Key:
... = palm mute
/ \ = slides
b = bend
1 = one step bend
.5 = half step bend
.25 = quarter step bend
.75 = three fourths bend
h = hammer on
() = bring bent note back to normal note.
p = pull off
^ = upstroke
* = pinch harmonic.
! = tremelo pick
~ = ring out or vibrato
x = muted string
< = volume swell up.
> = volume swell down.

+++++++++++++++++++++++++++++++++++++++++++++++++++++++++++++++++++++
Guitar 1 : with some delay.
                                                       .5
eb|-12--------------------------------------------------------------------|
Bb|-----13p12h13----------------------------------------------------------|
Gb|----------------------------------------------------2b--2p0------------|
Db|-------------------------------------------------------------2---------|
Ab|-----------------------------------------------------------------------|
Eb|-----------------------------------------------------------------------|

Guitar 2:
eb|-^0~-----------0-0--------0------------0---^0~-----------0--0----------|
Bb|-^0~--------0--0-0--------0------------0---^0~-------0~--0--0----------|
Gb|-^3~--------3--3-3--------4------------4---^3~-------3~--3--3----------|
Db|-^4~--------4--4-4--x-x---2------------2---^4~-------4~--4--4---x--x---|
Ab|-^4~--------4--4-4--x-x---2------------2---^4~-------4~--4--4---x--x---|
Eb|-^2~--------2--2-2--x-x---0------------0---^2~-------2~--2--2---x--x---|

++++++++++++++++++++++++++++++++++++++++++++++++++++++++++++++++++++++
Guitar 1:
                         1                         1                 1
eb|----------------------------------------------10b-(10)~~~~~~~~-----------------------------|
Bb|------------------8-10b-(10)-8-10-8~~~~~~~~~~-------------------10b-(10)--------8--7h8p7---|
Gb|----------------7------------------------------------------------------------------------7-|
Db|----------7h8-9----------------------------------------------------------------------------|
Ab|-------------------------------------------------------------------------------------------|
Eb|-------------------------------------------------------------------------------------------|

Guitar 2:
eb|-0--------0----^0~----------0~-0--------0--------------------------------^3----------------|
Bb|-0--------0----^0~-------0~-0~-0--------0--------------------------------^3----------------|
Gb|-4--------4----^3~-------3~-3~-3--------4--------------------------------^0----------------|
Db|-2--------2----^4~-------4~-4~-4-x-x----2--------------------------------^0----------------|
Ab|-2--------2----^4~-------4~-4~-4-x-x----2--------------------------------^x----------------|
Eb|-0--------0----^2~-------2~-2~-2-x-x----0--------------------------------^3----------------|

+++++++++++++++++++++++++++++++++++++++++++++++++++++++++++++++++++++++
Guitar 1:
eb|-----------------------------------------------|
Bb|-----------------------------------------3h/5--|
Gb|-4h/9----------(9)\----------------------------|
Db|----------------------7p5\4h5p4p\2-------------|
Ab|-----------------------------------------------|
Eb|-----------------------------------------------|

Guitar 2:
eb|------------------------------------------0--0-|
Bb|-^2---------------------------------------0--0-|
Gb|-^3---------------------------------------4--4-|
Db|-^4---------------------------------------2--2-|
Ab|-^4---------------------------------------2--2-|
Eb|-^2---------------------------------------0--0-|

End of Intro
++++++++++++++++++++++++++++++++++++++++++++++++++++++++++++++++++++++++
Verse.
"Freedom's just a word today, freedom's just a word. When someone takes your word away,
seldom ever heard. So"
Guitar 1: with Chorus effect.
eb|-0--------0------0--------0------0----0-------0----0-----0-----0------0-----0----0------0----0---|
Bb|-0--------0------0--------0------0----0-------0----0-----0-----0------0-----0----0------0----0---|
Gb|-4--------4------4--------4------3----3-------3----3-----4-----4------4-----3----3------3----3---|
Db|-------6------6------6--------6-----4----4-------4----4-----6-----6------6----4-----4-----4----4-|
Ab|-------------------------------------------------------------------------------------------------|
Eb|-------------------------------------------------------------------------------------------------|

Guitar 2: with Chorus effect.
eb|-^0---------------------------------------^0-------------------------------^0--------------------|
Bb|-^0---------------------------------------^0-------------------------------^0--------------------|
Gb|-^3---------------------------------------^4-------------------------------^3--------------------|
Db|-^4---------------------------------------^6-------------------------------^4--------------------|
Ab|-------------------------------------------------------------------------------------------------|
Eb|-------------------------------------------------------------------------------------------------|

++++++++++++++++++++++++++++++++++++++++++++++++++++++++++++++++++++++++++
"take a sentence full of things you're not supposed to say, carry on,"
Guitar 1:
eb|-0-----0-----0-------0-------0-----0--------0------0-------|
Bb|-0-----0-----0-------0-------0-----0--------0------0-------|
Gb|-4-----4-----4-------4-------3-----3--------3------3-------|
Db|----6-----6------6-------6------4------4--------4------4---|
Ab|-----------------------------------------------------------|
Eb|-----------------------------------------------------------|

Guitar 2:
eb|-^0-------------------------^0-----------------------------|
Bb|-^0-------------------------^0-----------------------------|
Gb|-^4-------------------------^3-----------------------------|
Db|-^6-------------------------^4-----------------------------|
Ab|-----------------------------------------------------------|
Eb|-----------------------------------------------------------|

+++++++++++++++++++++++++++++++++++++++++++++++++++++++++++++++++++++++++++
"but don't write them down or you'll be gone."
Guitar 1:
eb|----------------------------------------------------------------------------------------0--0--|
Bb|-10h/12\10---10--10h/12\10--10--10h/12\10---10h/12\10---10-10h/12\10--10--10h/12\10-----9--9--|
Gb|--9h/11\-9----9---9h/11\-9---9---9h/11\-9----9h/11\-9----9--9h/11\-9---9---9h/11\-9-----9--9--|
Db|----------------------------------------------------------------------------------------------|
Ab|----------------------------------------------------------------------------------------------|
Eb|----------------------------------------------------------------------------------------------|

Guitar 2: just hit the 12th frets and do a long slow slide up the neck.
eb|----------------------------------------------------------------------------------------------|
Bb|----------------------------------------------------------------------------------------12\\\\|
Gb|----------------------------------------------------------------------------------------12\\\\|
Db|----------------------------------------------------------------------------------------------|
Ab|----------------------------------------------------------------------------------------------|
Eb|----------------------------------------------------------------------------------------------|

Guitar 3:
eb|-----------------------------------------------------------------------------------------0--0-|
Bb|-----------------------------------------------------------------------------------------0--0-|
Gb|-----------------------------------------------------------------------------------------4--4-|
Db|--------5-----------------------------------------4--------------------------------------2--2-|
Ab|-----5-----------------------------------------4-----------------------------------------2--2-|
Eb|--3-----------------------------------------2--------------------------------------------0--0-|

End of Verse 1.
++++++++++++++++++++++++++++++++++++++++++++++++++++++++++++++++++++++++++++
Verse 2:
"Love is just a song today, love is just a song. When"

Guitar 1: Do the whole acoustic riff from Verse 1 again, for the rest of Verse 2.

Guitar 2:
eb|---------------------------------------------------------------------------|
Bb|-/10\\\\\9\\\\\------------------------------------------------------------|
Gb|-/10\\\\\9\\\\\------------------------------------------------------------|
Db|---------------------------------------------------------------------------|
Ab|---------------------------------------------------------------------------|
Eb|---------------------------------------------------------------------------|

Guitar 3:
eb|-0---------------0--0--0----0--0--0--------0---------------------0---0-----|
Bb|-0---------------0--0--0----0--0--0--------0---------------------0---0-----|
Gb|-1---------------1--1--1----1--1--1--------3---------------------3---4-----|
Db|-2---------------2--2--2----2--2--2--------4---------------------4---4-----|
Ab|-2---------------2--2--2----2--2--2--------4---------------------4---4-----|
Eb|-0---------------0--0--0----0--0--0--------2---------------------2---2-----|

+++++++++++++++++++++++++++++++++++++++++++++++++++++++++++++++++++++++++++++
"someone takes the song away you seldom sing along. So"
Guitar 2:
eb|-0---0--0--0--0--0---0--0--0------0--0--0-----0-------0----0--0--0---0---0-|
Bb|-0---0--0--0--0--0---0--0--0------0--0--0-----0-------0----0--0--0---0---0-|
Gb|-1---1--1--1--1--1---1--1--1------1--1--1-----3-------3----3--3--3---3---3-|
Db|-2---2--2--2--2--2---2--2--2------2--2--2-----4-------4----4--4--4---4---4-|
Ab|-2---2--2--2--2--2---2--2--2------2--2--2-----4-------4----4--4--4---4---4-|
Eb|-0---0--0--0--0--0---0--0--0------0--0--0-----2-------2----2--2--2---2---2-|

+++++++++++++++++++++++++++++++++++++++++++++++++++++++++++++++++++++++++++++
"take those lyrics serious and sing your life away. Carry on,"
Guitar 2:
eb|-0---0---0----0---0--0--0---0----0----0---0--0--0--0--0----0--0--0--0--0--|
Bb|-0---0---0----0---0--0--0---0----0----0---0--0--0--0--0----0--0--0--0--0--|
Gb|-1---1---1----1---1--1--1---1----1----3---3--3--3--3--3----3--3--3--3--3--|
Db|-2---2---2----2---2--2--2---2----2----4---4--4--4--4--4----4--4--4--4--4--|
Ab|-2---2---2----2---2--2--2---2----2----4---4--4--4--4--4----4--4--4--4--4--|
Eb|-0---0---0----0---0--0--0---0----0----2---2--2--2--2--2----2--2--2--2--2--|

Guitar 3:
eb|--------------------------------------------------------------------------|
Bb|--------------------------------------------------------------------------|
Gb|-9~~~~~~~-------------------9~~~~~~~~~~~~~~~~~~--------------(9)\\\\\\\\\-|
Db|--------------------------------------------------------------------------|
Ab|--------------------------------------------------------------------------|
Eb|--------------------------------------------------------------------------|

+++++++++++++++++++++++++++++++++++++++++++++++++++++++++++++++++++++++++++++
"but don't write them down, or they'll be gone."
Guitar 1:
eb|----------------------------------------------------------------------------------------0--0--|
Bb|-10h/12\10---10--10h/12\10--10--10h/12\10---10h/12\10---10-10h/12\10--10--10h/12\10-----9--9--|
Gb|--9h/11\-9----9---9h/11\-9---9---9h/11\-9----9h/11\-9----9--9h/11\-9---9---9h/11\-9-----9--9--|
Db|----------------------------------------------------------------------------------------------|
Ab|----------------------------------------------------------------------------------------------|
Eb|----------------------------------------------------------------------------------------------|

Guitar 2:
eb|-0---0--0--0--0--0---0--0---0----0---0--0--0---0--0--0--0--0---0--0--0-----0----0--0----0--0--|
Bb|-0---0--0--0--0--0---0--0---0----0---0--0--0---0--0--0--0--0---0--0--0-----0----0--0----0--0--|
Gb|-x---x--x--x--x--x---x--x---x----x---x--x--x---x--x--x--x--x---x--x--x-----x----x--x----4--4--|
Db|-5---5--5--5--5--5---5--5---5----5---5--5--4---4--4--4--4--4---4--4--4-----4----4--4----2--2--|
Ab|-5---5--5--5--5--5---5--5---5----5---5--5--4---4--4--4--4--4---4--4--4-----4----4--4----2--2--|
Eb|-3---3--3--3--3--3---3--3---3----3---3--3--2---2--2--2--2--2---2--2--2-----2----2--2----0--0--|

End of Verse 2.
+++++++++++++++++++++++++++++++++++++++++++++++++++++++++++++++++++++++++++++
Chorus 1:
"All we ever do is talk, we like to ride, but we never walk. We"
Guitar 1: Distortion.
eb|-------------------------------------------------------------------|
Bb|-------------------------------------------------------------------|
Gb|----------------------------------7-7-7-7-7-7-7-7-7-7-7-7-7-7------|
Db|-2-2-2-2-2-2-2-2-2-2-2-2-2-2------7-7-7-7-7-7-7-7-7-7-7-7-7-7------|
Ab|-2-2-2-2-2-2-2-2-2-2-2-2-2-2------5-5-5-5-5-5-5-5-5-5-5-5-5-5-5h/7-|
Eb|-0-0-0-0-0-0-0-0-0-0-0-0-0-0-3h/5----------------------------------|

Guitar 2: Distortion.
eb|-------------------------------------------------------------------|
Bb|-------------------------------------------------------------------|
Gb|-------------------------------------------------------------------|
Db|----------------------------------4-4-4-4-4-4-4-4-4-4-4-4-4-4-4h/5-|
Ab|----------------------------------5-5-5-5-5-5-5-5-5-5-5-5-5-5-5h/7-|
Eb|-0-0-0-0-0-0-0-0-0-0-0-0-0-0-3h/5----------------------------------|

++++++++++++++++++++++++++++++++++++++++++++++++++++++++++++++++++++++++++++++
"make it so damn easy we get bored."
Guitar 1:
eb|---------------------------------------------------|
Bb|---------------------------------------------------|
Gb|-5-5-5-5-5-5-5-5-5-5-5-5-5-5----3---5---7----------|
Db|-5-5-5-5-5-5-5-5-5-5-5-5-5-5----3---5---7---5------|
Ab|-3-3-3-3-3-3-3-3-3-3-3-3-3-3----1---3---5---5------|
Eb|--------------------------------------------3------|

Guitar 2:
eb|---------------------------------------------------|
Bb|---------------------------------------------------|
Gb|---------------------------------------------------|
Db|-2-2-2-2-2-2-2-2-2-2-2-2-2-2----1~---2~----4~------|
Ab|-3-3-3-3-3-3-3-3-3-3-3-3-3-3----2~---3~----5~---2~-|
Eb|------------------------------------------------3~-|

++++++++++++++++++++++++++++++++++++++++++++++++++++++++++++++++++++++++++++++++
"Why can't anybody see what's good for you is good for me?"
Guitar 1:
eb|-------------------------------------------------------------------|
Bb|-------------------------------------------------------------------|
Gb|----------------------------------7-7-7-7-7-7-7-7-7-7-7-7-7-7------|
Db|-2-2-2-2-2-2-2-2-2-2-2-2-2-2------7-7-7-7-7-7-7-7-7-7-7-7-7-7------|
Ab|-2-2-2-2-2-2-2-2-2-2-2-2-2-2------5-5-5-5-5-5-5-5-5-5-5-5-5-5-5h/7-|
Eb|-0-0-0-0-0-0-0-0-0-0-0-0-0-0-3h/5----------------------------------|

Guitar 2:
eb|-------------------------------------------------------------------|
Bb|-------------------------------------------------------------------|
Gb|-------------------------------------------------------------------|
Db|----------------------------------4-4-4-4-4-4-4-4-4-4-4-4-4-4-4h/5-|
Ab|----------------------------------5-5-5-5-5-5-5-5-5-5-5-5-5-5-5h/7-|
Eb|-0-0-0-0-0-0-0-0-0-0-0-0-0-0-3h/5----------------------------------|

Guitar 3: Distortion
eb|-------------------------------------------------------------------|
Bb|-5-5-5-5-5-5-5-5-5-5-5-5-5h/7-5h/7-5-5-5-5-5-5-5-5-5-5-5-5-5h7-5---|
Gb|-------------------------------------------------------------------|
Db|-------------------------------------------------------------------|
Ab|-------------------------------------------------------------------|
Eb|-------------------------------------------------------------------|

++++++++++++++++++++++++++++++++++++++++++++++++++++++++++++++++++++++++++++++++
"I can't take your silly world, I can't take your silly world no more."
Guitar 1:
eb|---------------------------------------------------|
Bb|---------------------------------------------------|
Gb|-5-5-5-5-5-5-5-5-5-5-5-5-5-5----3---5---7----------|
Db|-5-5-5-5-5-5-5-5-5-5-5-5-5-5----3---5---7---5------|
Ab|-3-3-3-3-3-3-3-3-3-3-3-3-3-3----1---3---5---5------|
Eb|--------------------------------------------3------|

Guitar 2:
eb|---------------------------------------------------|
Bb|---------------------------------------------------|
Gb|---------------------------------------------------|
Db|-2-2-2-2-2-2-2-2-2-2-2-2-2-2----1~---2~----4~------|
Ab|-3-3-3-3-3-3-3-3-3-3-3-3-3-3----2~---3~----5~---2~-|
Eb|------------------------------------------------3~-|

Guitar 3:
eb|-------------------------------------0-----------------------|
Bb|-5h/7-5h/7--5--5h/7-5h/7--5---5--5---4---5---7~~~~~~---------|
Gb|----------------------------------------------------4~~~~~~~~|
Db|-------------------------------------------------------------|
Ab|-------------------------------------------------------------|
Eb|-------------------------------------------------------------|

End of Chorus 1.
++++++++++++++++++++++++++++++++++++++++++++++++++++++++++++++++++++++++++++++++
Interlude:
Guitar 1:
eb|----------------------------------------------------------------|
Bb|----------------------------------------------------------------|
Gb|----------------------------------------------------------------|
Db|-7h9-7h9-7~~-7h9-7h9-7~~-7h9-7h9-5h7-5h7-5~~-5h7-5h7-5~-5h7-5h7-|
Ab|----------------------------------------------------------------|
Eb|----------------------------------------------------------------|

Guitar 2:
eb|-----------------------------------------------------------------|
Bb|-----------------------------------------------------------------|
Gb|-----------------------------------------------------------------|
Db|-----------------------------------------------------------------|
Ab|-----------------------------------------------------------------|
Eb|-5h7-5h7-5~~-5h7-5h7-5~~-5h7-5h7-3h5-3h5-3~~-3h5-3h5-3~~-3h5-3h5-|

++++++++++++++++++++++++++++++++++++++++++++++++++++++++++++++++++++++++++++++++
Guitar 1:
eb|---------------------------------------------------------------|
Bb|---------------------------------------------------------------|
Gb|---------------------------------------------------------------|
Db|-4h5-4h5-4~~-4h5-4h5-4~~-4h5-4h5-3-3-3-3-3--3-3-3-3-3--3-3-3-3-|
Ab|---------------------------------------------------------------|
Eb|---------------------------------------------------------------|

Guitar 2:
eb|-----------------------------------------------------------------|
Bb|-----------------------------------------------------------------|
Gb|-----------------------------------------------------------------|
Db|-----------------------------------------3----------3------------|
Ab|-----------------------------------------3----------3------------|
Eb|-2h3-2h3-2~~-2h3-2h3-2~~-2h3-2h3-1-1-1-1-1--1-1-1-1-1--1-1-1-1---|

++++++++++++++++++++++++++++++++++++++++++++++++++++++++++++++++++++++++++++++++
Verse 3:
"Peace is just two fingers now, peace was just a phase. When"
Guitar 1: Play acoustic riff from Verse 2 again.

Guitar 2:
eb|-0----------0--0--0----0--------------------------------------------------------|
Bb|-0----------0--0--0----0--------------------------------------------------------|
Gb|-1----------1--1--1----3--------------------------------------------------------|
Db|-2----------2--2--2----4--------------------------------------------------------|
Ab|-2----------2--2--2----4--------------------------------------------------------|
Eb|-0----------0--0--0----2--------------------------------------------------------|

Guitar 3:
eb|-12----12-----12------12--------12-----12----12----12---|
Bb|--x-----x------x-------x---------x------x-----x-----x---|
Gb|--9-----9------9-------9---------9------9-----9-----9---|
Db|--------------------------------------------------------|
Ab|--------------------------------------------------------|
Eb|--------------------------------------------------------|

++++++++++++++++++++++++++++++++++++++++++++++++++++++++++++++++++++++++++++++++
"someone put it on a shirt, you knew to count the days. So"
Guitar 3:
eb|-12----12-----12------12--------12-----12----12----12---|
Bb|--x-----x------x-------x---------x------x-----x-----x---|
Gb|--9-----9------9-------9---------9------9-----9-----9---|
Db|--------------------------------------------------------|
Ab|--------------------------------------------------------|
Eb|--------------------------------------------------------|

+++++++++++++++++++++++++++++++++++++++++++++++++++++++++++++++++++++++++++++++++
"take those fingers, tape them up and shove them up your a$$ and carry on,"
Guitar 1:
eb|-^0~------------------------^0~-------------------------|
Bb|-^0~------------------------^0~-------------------------|
Gb|-^1~------------------------^3~-------------------------|
Db|-^2~------------------------^4~-------------------------|
Ab|-^x~------------------------^x~-------------------------|
Eb|-^x~------------------------^x~-------------------------|

Guitar 3:
eb|-12----12-----12------12--------12-----12----12----12---|
Bb|--x-----x------x-------x---------x------x-----x-----x---|
Gb|--9-----9------9-------9---------9------9-----9-----9---|
Db|--------------------------------------------------------|
Ab|--------------------------------------------------------|
Eb|--------------------------------------------------------|

++++++++++++++++++++++++++++++++++++++++++++++++++++++++++++++++++++++++++++++++++
"but don't try it now, cuz peace is gone."
Guitar 1:
eb|----------------------------------------------------------------------------------------0--0--|
Bb|-10h/12\10---10--10h/12\10--10--10h/12\10---10h/12\10---10-10h/12\10--10--10h/12\10-----9--9--|
Gb|--9h/11\-9----9---9h/11\-9---9---9h/11\-9----9h/11\-9----9--9h/11\-9---9---9h/11\-9-----9--9--|
Db|----------------------------------------------------------------------------------------------|
Ab|----------------------------------------------------------------------------------------------|
Eb|----------------------------------------------------------------------------------------------|

Guitar 2:
eb|----------------------------------------------------------------------------------------0--0--|
Bb|----------------------------------------------------------------------------------------0--0--|
Gb|----------------------------------------------------------------------------------------4--4--|
Db|----------------------------------------------------------------------------------------2--2--|
Ab|----------------------------------------------------------------------------------------2--2--|
Eb|----------------------------------------------------------------------------------------0--0--|

Guitar 3:
eb|----------------------------------------------------------------------------------------------|
Bb|----------------------------------------------------------------------------------------------|
Gb|----------------------------------------------------------------------------------------------|
Db|----------------------------------------------------------------------------------------2<----|
Ab|----------------------------------------------------------------------------------------2<----|
Eb|----------------------------------------------------------------------------------------0<----|

++++++++++++++++++++++++++++++++++++++++++++++++++++++++++++++++++++++++++++++++++
Chorus 2:
"All we ever do is talk, we like to ride, but we never walk. We"
Guitar 1:Distortion.
eb|-------------------------------------------------------------------|
Bb|-------------------------------------------------------------------|
Gb|----------------------------------7-7-7-7-7-7-7-7-7-7-7-7-7-7------|
Db|-2-2-2-2-2-2-2-2-2-2-2-2-2-2------7-7-7-7-7-7-7-7-7-7-7-7-7-7------|
Ab|-2-2-2-2-2-2-2-2-2-2-2-2-2-2------5-5-5-5-5-5-5-5-5-5-5-5-5-5-5h/7-|
Eb|-0-0-0-0-0-0-0-0-0-0-0-0-0-0-3h/5----------------------------------|

Guitar 2:
eb|-------------------------------------------------------------------|
Bb|-------------------------------------------------------------------|
Gb|-------------------------------------------------------------------|
Db|----------------------------------4-4-4-4-4-4-4-4-4-4-4-4-4-4-4h/5-|
Ab|----------------------------------5-5-5-5-5-5-5-5-5-5-5-5-5-5-5h/7-|
Eb|-0-0-0-0-0-0-0-0-0-0-0-0-0-0-3h/5----------------------------------|

Guitar 3:
eb|---------------------------------------------------------------------|
Bb|-5-5-5-5-5-5-5-5-5-5-5-5-5h/7-5h/7-5-5-5-5-5-5-5-5-5h/7-5-5-5h/7-5-5-|
Gb|---------------------------------------------------------------------|
Db|---------------------------------------------------------------------|
Ab|---------------------------------------------------------------------|
Eb|---------------------------------------------------------------------|

+++++++++++++++++++++++++++++++++++++++++++++++++++++++++++++++++++++++++++++++++
"make it so damn easy we get bored."
Guitar 1:
eb|---------------------------------------------------|
Bb|---------------------------------------------------|
Gb|-5-5-5-5-5-5-5-5-5-5-5-5-5-5----3---5---7----------|
Db|-5-5-5-5-5-5-5-5-5-5-5-5-5-5----3---5---7---5------|
Ab|-3-3-3-3-3-3-3-3-3-3-3-3-3-3----1---3---5---5------|
Eb|--------------------------------------------3------|

Guitar 2:
eb|---------------------------------------------------|
Bb|---------------------------------------------------|
Gb|---------------------------------------------------|
Db|-2-2-2-2-2-2-2-2-2-2-2-2-2-2----1~---2~----4~------|
Ab|-3-3-3-3-3-3-3-3-3-3-3-3-3-3----2~---3~----5~---2~-|
Eb|------------------------------------------------3~-|

Guitar 3:
eb|---------------------------------------------------|
Bb|-5-5-5-5-5-5-5-5-5-5-5-5-5-5----7----5------7~~~---|
Gb|------------------------------------------------4~~|
Db|---------------------------------------------------|
Ab|---------------------------------------------------|
Eb|---------------------------------------------------|

++++++++++++++++++++++++++++++++++++++++++++++++++++++++++++++++++++++++++++++++++
"Why can't anybody see what's good for you is bad for me? And"
Guitar 1:
eb|-------------------------------------------------------------------|
Bb|-------------------------------------------------------------------|
Gb|----------------------------------7-7-7-7-7-7-7-7-7-7-7-7-7-7------|
Db|-2-2-2-2-2-2-2-2-2-2-2-2-2-2------7-7-7-7-7-7-7-7-7-7-7-7-7-7------|
Ab|-2-2-2-2-2-2-2-2-2-2-2-2-2-2------5-5-5-5-5-5-5-5-5-5-5-5-5-5-5h/7-|
Eb|-0-0-0-0-0-0-0-0-0-0-0-0-0-0-3h/5----------------------------------|

Guitar 2:
eb|-------------------------------------------------------------------|
Bb|-------------------------------------------------------------------|
Gb|-------------------------------------------------------------------|
Db|----------------------------------4-4-4-4-4-4-4-4-4-4-4-4-4-4-4h/5-|
Ab|----------------------------------5-5-5-5-5-5-5-5-5-5-5-5-5-5-5h/7-|
Eb|-0-0-0-0-0-0-0-0-0-0-0-0-0-0-3h/5----------------------------------|

Guitar 3:
eb|---------------------------------------------------------------------------|
Bb|-5-5-5-5-5-5-5-5-5-5-5-5---5h/7--5h/7--5--5-5-5--5-5-5-5--5-5-5-5--5h/7--5-|
Gb|---------------------------------------------------------------------------|
Db|---------------------------------------------------------------------------|
Ab|---------------------------------------------------------------------------|
Eb|---------------------------------------------------------------------------|

+++++++++++++++++++++++++++++++++++++++++++++++++++++++++++++++++++++++++++++++++++
"I can't take your silly world, I can't take your silly world no more."
Guitar 1:
eb|---------------------------------------------------|
Bb|---------------------------------------------------|
Gb|-5-5-5-5-5-5-5-5-5-5-5-5-5-5----3---5---7----------|
Db|-5-5-5-5-5-5-5-5-5-5-5-5-5-5----3---5---7---5------|
Ab|-3-3-3-3-3-3-3-3-3-3-3-3-3-3----1---3---5---5------|
Eb|--------------------------------------------3------|

Guitar 2:
eb|---------------------------------------------------|
Bb|---------------------------------------------------|
Gb|---------------------------------------------------|
Db|-2-2-2-2-2-2-2-2-2-2-2-2-2-2----1~---2~----4~------|
Ab|-3-3-3-3-3-3-3-3-3-3-3-3-3-3----2~---3~----5~---2~-|
Eb|------------------------------------------------3~-|

Guitar 3:
eb|----------------------------------------------------------------|
Bb|-5-5-5-5-5-5-5-5h/7--5-5-5-5---5-5----4----5----7~~~~~~---------|
Gb|--------------------------------------------------------4~~~~~~~|
Db|----------------------------------------------------------------|
Ab|----------------------------------------------------------------|
Eb|----------------------------------------------------------------|

End of Chorus 2
+++++++++++++++++++++++++++++++++++++++++++++++++++++++++++++++++++++++++++++
Bridge
"We fight our instincts,"
Guitar 1:
eb|------------------------------------------------------------------|
Bb|------------------------------------------------------------------|
Gb|------------------------------------------------------------------|
Db|-7-7-7-7-7-7-7-7-7-7-7-7-7-7-7----5-5-5-5-5-5-5-5-5-5-5-5-5-5-5---|
Ab|-7-7-7-7-7-7-7-7-7-7-7-7-7-7-7----5-5-5-5-5-5-5-5-5-5-5-5-5-5-5---|
Eb|-5-5-5-5-5-5-5-5-5-5-5-5-5-5-5-0--3-3-3-3-3-3-3-3-3-3-3-3-3-3-3-0-|

Guitar 2:
eb|-0-------0-------0------0---------0-------0-------0-------0-------|
Bb|-0-------0-------0------0---------0-------0-------0-------0-------|
Gb|-x-------x-------x------x---------x-------x-------x-------x-------|
Db|-7-------7-------7------7---------5-------5-------5-------5-------|
Ab|-7-------7-------7------7---------5-------5-------5-------5-------|
Eb|-5-------5-------5------5---------3-------3-------3-------3-------|

+++++++++++++++++++++++++++++++++++++++++++++++++++++++++++++++++++++++++++++
"we go to extremes."
Guitar 1:
eb|--------------------------------------------------------------------|
Bb|--------------------------------------------------------------------|
Gb|--------------------------------------------------------------------|
Db|-4-4-4-4-4-4-4-4-4-4-4-4-4-4-4----3-3-3-3-3-3-3-3-3-3-3-3-3-3-3-3/--|
Ab|-4-4-4-4-4-4-4-4-4-4-4-4-4-4-4----3-3-3-3-3-3-3-3-3-3-3-3-3-3-3-3/--|
Eb|-2-2-2-2-2-2-2-2-2-2-2-2-2-2-2-0--1-1-1-1-1-1-1-1-1-1-1-1-1-1-1-1/--|

Guitar 2:
eb|-0-------0-------0-------0--------0-------0-------0-------0-----0---|
Bb|-0-------0-------0-------0--------0-------0-------0-------0-----0---|
Gb|-x-------x-------x-------x--------x-------x-------x-------x-----x---|
Db|-4-------4-------4-------4--------3-------3-------3-------3-----3---|
Ab|-4-------4-------4-------4--------3-------3-------3-------3-----3---|
Eb|-2-------2-------2-------2--------1-------1-------1-------1-----1---|

++++++++++++++++++++++++++++++++++++++++++++++++++++++++++++++++++++++++++++++
"We fight our instincts,"
Guitar 1:
eb|------------------------------------------------------------------|
Bb|------------------------------------------------------------------|
Gb|------------------------------------------------------------------|
Db|-7-7-7-7-7-7-7-7-7-7-7-7-7-7-7----5-5-5-5-5-5-5-5-5-5-5-5-5-5-5---|
Ab|-7-7-7-7-7-7-7-7-7-7-7-7-7-7-7----5-5-5-5-5-5-5-5-5-5-5-5-5-5-5---|
Eb|-5-5-5-5-5-5-5-5-5-5-5-5-5-5-5-0--3-3-3-3-3-3-3-3-3-3-3-3-3-3-3-0-|

Guitar 2:
eb|-0-------0-------0------0---------0-------0-------0-------0-------|
Bb|-0-------0-------0------0---------0-------0-------0-------0-------|
Gb|-x-------x-------x------x---------x-------x-------x-------x-------|
Db|-7-------7-------7------7---------5-------5-------5-------5-------|
Ab|-7-------7-------7------7---------5-------5-------5-------5-------|
Eb|-5-------5-------5------5---------3-------3-------3-------3-------|

++++++++++++++++++++++++++++++++++++++++++++++++++++++++++++++++++++++++++++++
"we go to extremes."
Guitar 1:
eb|--------------------------------------------------------------------|
Bb|--------------------------------------------------------------------|
Gb|--------------------------------------------------------------------|
Db|-4-4-4-4-4-4-4-4-4-4-4-4-4-4-4----3-3-3-3-3-3-3-3-3-3-3-3-3-3-3-3/--|
Ab|-4-4-4-4-4-4-4-4-4-4-4-4-4-4-4----3-3-3-3-3-3-3-3-3-3-3-3-3-3-3-3/--|
Eb|-2-2-2-2-2-2-2-2-2-2-2-2-2-2-2-0--1-1-1-1-1-1-1-1-1-1-1-1-1-1-1-1/--|

Guitar 2:
eb|-0-------0-------0-------0--------0-------0-------0-------0-----0---|
Bb|-0-------0-------0-------0--------0-------0-------0-------0-----0---|
Gb|-x-------x-------x-------x--------x-------x-------x-------x-----x---|
Db|-4-------4-------4-------4--------3-------3-------3-------3-----3---|
Ab|-4-------4-------4-------4--------3-------3-------3-------3-----3---|
Eb|-2-------2-------2-------2--------1-------1-------1-------1-----1---|

++++++++++++++++++++++++++++++++++++++++++++++++++++++++++++++++++++++++++++++
"We fight our lives, we fight our lives, We fight our lives, we fight our lives."
Guitar 1:
eb|------------------------------------------------------------------|
Bb|------------------------------------------------------------------|
Gb|------------------------------------------------------------------|
Db|-7-7-7-7-7-7-7-7-7-7-7-7-7-7-7----5-5-5-5-5-5-5-5-5-5-5-5-5-5-5---|
Ab|-7-7-7-7-7-7-7-7-7-7-7-7-7-7-7----5-5-5-5-5-5-5-5-5-5-5-5-5-5-5---|
Eb|-5-5-5-5-5-5-5-5-5-5-5-5-5-5-5-0--3-3-3-3-3-3-3-3-3-3-3-3-3-3-3-0-|

Guitar 2: Play this part 8 times in all.
eb|----------------|
Bb|----------------|
Gb|-14--14--14--14-|
Db|--x---x---x---x-|
Ab|-12--12--12--12-|
Eb|----------------|

+++++++++++++++++++++++++++++++++++++++++++++++++++++++++++++++++++++++++++++++
"We fight our lives, we gight our lives. We fight our lives, we fight our..."
Guitar 1:
eb|--------------------------------------------------------------------|
Bb|--------------------------------------------------------------------|
Gb|--------------------------------------------------------------------|
Db|-4-4-4-4-4-4-4-4-4-4-4-4-4-4-4----3-3-3-3-3-3-3-3-3-3-3-3-3-3-3-3/--|
Ab|-4-4-4-4-4-4-4-4-4-4-4-4-4-4-4----3-3-3-3-3-3-3-3-3-3-3-3-3-3-3-3/--|
Eb|-2-2-2-2-2-2-2-2-2-2-2-2-2-2-2-0--1-1-1-1-1-1-1-1-1-1-1-1-1-1-1-1/--|

Guitar 2: Play these three sections in order.
eb|----------------|   |-----------------------| |-------|
Bb|----------------|   |-----------------------| |-------|
Gb|-14--14--14--14-|   |--10-10-10-10-10-10-10-| |-10/12-|
Db|--x---x---x---x-|   |---x--x--x--x--x--x--x-| |--x--x-|
Ab|-12--12--12--12-|   |---8--8--8--8--8--8--8-| |--8/10-|
Eb|----------------|   |-----------------------| |-------|
   Play 4 times.          Play twice.              Play once.

++++++++++++++++++++++++++++++++++++++++++++++++++++++++++++++++++++++++++++++++
"We fight our lives, we fight our lives. We fight our lives, we figght our lives.
Guitar 1:
eb|------------------------------------------------------------------|
Bb|------------------------------------------------------------------|
Gb|------------------------------------------------------------------|
Db|-7-7-7-7-7-7-7-7-7-7-7-7-7-7-7----5-5-5-5-5-5-5-5-5-5-5-5-5-5-5---|
Ab|-7-7-7-7-7-7-7-7-7-7-7-7-7-7-7----5-5-5-5-5-5-5-5-5-5-5-5-5-5-5---|
Eb|-5-5-5-5-5-5-5-5-5-5-5-5-5-5-5-0--3-3-3-3-3-3-3-3-3-3-3-3-3-3-3-0-|

Guitar 2: Play 8 times in all.
eb|----------------|
Bb|----------------|
Gb|-14--14--14--14-|
Db|--x---x---x---x-|
Ab|-12--12--12--12-|
Eb|----------------|

+++++++++++++++++++++++++++++++++++++++++++++++++++++++++++++++++++++++++++++++++
"We fight our lives, we fight our lives.
Guitar 1:
eb|---------------------------------|
Bb|---------------------------------|
Gb|---------------------------------|
Db|-4-4-4-4-4-4-4-4-4-4-4-4-4-4-4---|
Ab|-4-4-4-4-4-4-4-4-4-4-4-4-4-4-4---|
Eb|-2-2-2-2-2-2-2-2-2-2-2-2-2-2-2-0-|

Guitar 2:
eb|----------------|    |----------------|
Bb|----------------|    |----------------|
Gb|-14--14--14--14-|    |-10-10-10-10-10-|
Db|--x---x---x---x-|    |--x--x--x--x--x-|
Ab|-12--12--12--12-|    |--8--8--8--8--8-|
Eb|----------------|    |----------------|
    Play 4 times.          Play twice.

+++++++++++++++++++++++++++++++++++++++++++++++++++++++++++++++++++++++++++++++++++
Guitar 2:
eb|-----------------------------------|
Bb|-----------------------------------|
Gb|-----------------------------------|
Db|-3-3-3-3-3-3-3-3--x-x-x-x-x-x------|
Ab|-3-3-3-3-3-3-3-3--x-x-x-x-x-x------|
Eb|-1-1-1-1-1-1-1-1--x-x-x-x-x-x--14\-|

Guitar 1: with a wah wah.
eb|------------------x-x-x-x-x-x-x-x--|
Bb|------------------x-x-x-x-x-x-x-x--|
Gb|------------------x-x-x-x-x-x-x-x--|
Db|------------------x-x-x-x-x-x-x-x--|
Ab|------------------x-x-x-x-x-x-x-x--|
Eb|------------------x-x-x-x-x-x-x-x--|

End of Bridge.
+++++++++++++++++++++++++++++++++++++++++++++++++++++++++++++++++++++++++++++++++++
Solo
Guitar 1: with a wah wah.
      1            1           1
eb|-17b-----(17)-17b~~~~(17)-17b-----(17)---12h15p12h15p12h15p12----12-------------------------------|
Bb|--------------------------------------------------------------15----15p12----12-15p12----12-------|
Gb|---------------------------------------0----------------------------------14----------14----12~~~~|
Db|--------------------------------------------------------------------------------------------------|
Ab|--------------------------------------------------------------------------------------------------|
Eb|--------------------------------------------------------------------------------------------------|

Guitar 2:
eb|-----------------------------------------------------------------|
Bb|-----------------------------------------------------------------|
Gb|-----------------------------------------------------------------|
Db|-----------------------------------------------------------------|
Ab|-----------------------------------------------------------------|
Eb|-5h7-5h7-5~~-5h7-5h7-5~~-5h7-5h7-3h5-3h5-3~~-3h5-3h5-3~~-3h5-3h5-|

Guitar 3:
eb|-----------------------------------------------------------------|
Bb|-----------------------------------------------------------------|
Gb|-----------------------------------------------------------------|
Db|-----------------------------------------------------------------|
Ab|-4h5-4h5-4~~-4h5-4h5-4~~-4h5-4h5-2h4-2h4-2~~-2h4-2h4-2~~-2h4-2h4-|
Eb|-----------------------------------------------------------------|

+++++++++++++++++++++++++++++++++++++++++++++++++++++++++++++++++++++++++++++++++++
Guitar 1:
      .5            .5
eb|-------------------------------------------------------------------------------|
Bb|-----------------------------------------------------------*******************-|
Gb|-2!b------------2!b----2!----0h2p0h2p0h2p0h2p0h2p0h2p0h2---0h2p0h2p0h2p0h2p0h2-|
Db|-------------------------------------------------------------------------------|
Ab|-------------------------------------------------------------------------------|
Eb|-------------------------------------------------------------------------------|

Guitar 2:
eb|---------------------------------|
Bb|---------------------------------|
Gb|---------------------------------|
Db|---------------------------------|
Ab|---------------------------------|
Eb|-2h3-2h3-2~~-2h3-2h3-2~~-2h3-2h3-|

Guitar 3:
eb|-----------------------------------------------------------------|
Bb|-----------------------------------------------------------------|
Gb|-----------------------------------------------------------------|
Db|-------------------------------------------3----------3----------|
Ab|-1h2-1h2-1~~-1h2-1h2-1~~-1h2-1h2-----------3----------3----------|
Eb|-----------------------------------1-1-1-1-1--1-1-1-1-1--1-1-1-1-|

++++++++++++++++++++++++++++++++++++++++++++++++++++++++++++++++++++++++++++++++++++
Guitar 1:
      1           1           1           1                     1
eb|-15b-(15)-12-15b-(15)-12-15b-(15)-12-15b-(15)-12-15~~-12-15-------------------------------------------------------|
Bb|----------------------------------------------------------------------------------------------------------------0-|
Gb|------------------------------------------------------------2b--2p0---0----0--14-14b-(14)p12----12-12~~-(12)\-x---|
Db|--------------------------------------------------------------------2---2/-------------------14---------------x---|
Ab|------------------------------------------------------------------------------------------------------------------|
Eb|------------------------------------------------------------------------------------------------------------------|

Guitar 2:
eb|-----------------------------------------------------------------|
Bb|-----------------------------------------------------------------|
Gb|-----------------------------------------------------------------|
Db|-----------------------------------------------------------------|
Ab|-4h5-4h5-4~~-4h5-4h5-4~~-4h5-4h5-2h4-2h4-2~~-2h4-2h4-2~~-2h4-2h4-|
Eb|-----------------------------------------------------------------|

+++++++++++++++++++++++++++++++++++++++++++++++++++++++++++++++++++++++++++++++++++
Guitar 1:

      1
eb|-15p13p12h13p12---------------------------------------------------------------------------------------------|
Bb|----------------15p13p12h13---------------------------------------------------------------------------------|
Gb|----------------------------14p12p10p\9h10h12p10p9h10p9-------9h10h12h/14p12p\10p9--------------------------|
Db|--------------------------------------------------------12p10----------------------12p10p9-------7-x-7------|
Ab|-------------------------------------------------------------------------------------------10b~~~------10p8-|
Eb|------------------------------------------------------------------------------------------------------------|

Guitar 2:
eb|---------------------------------|
Bb|---------------------------------|
Gb|---------------------------------|
Db|---------------------------------|
Ab|-1h2-1h2-1~~-1h2-1h2-1~~-1h2-1h2-|
Eb|---------------------------------|

+++++++++++++++++++++++++++++++++++++++++++++++++++++++++++++++++++++++++++++++++++
Guitar 1:
eb|-----------------------------------|
Bb|-----------------------------------|
Gb|-----------------------------------|
Db|-----------------------------------|
Ab|-7h8p7---------------------------0-|
Eb|-------10h/12p\10p8-10h/12p\10p8---|

Guitar 2: hold last chord.
eb|-----------------------------------|
Bb|-----------------------------------|
Gb|-----------------------2-----------|
Db|-----------3-----------3-----------|
Ab|-----------3-----------3-----------|
Eb|-1--1-1--1-1--1-1-1-1--1-----------|
                 .......

Guitar 3: hold last chord.
eb|-----------------------------------|
Bb|-----------------------------------|
Gb|-----------------------2-----------|
Db|-----------3-----------3-----------|
Ab|-----------3-----------3-----------|
Eb|-1--1-1--1-1--1-1-1-1--1-----------|
                 .......

+++++++++++++++++++++++++++++++++++++++++++++++++++++++++++++++++++++++++++++++++
Guitar 2: While holding the last note, do some slow volume swells. Meaning
          turn the volume knob on your guitar on and off repeatedly.

Guitar 3: Flip your rhythm switch up and down repeatedly, and then slide your
          hand down the strings towards the pickups to finish the song.

++++++++++++++++++++++++++++++++++++++++++++++++++++++++++++++++++++++++++++++++++
Please rate and comment my tab.
[travis]
Tap to rate this tab
 
# A B C D E F G H I J K L M N O P Q R S T U V W X Y Z