Guitaretab - guitar tabs
Song name
# A B C D E F G H I J K L M N O P Q R S T U V W X Y Z

Stone Temple Pilots - Still Remains tab

-------------------------------------------------------------------------------
			     Stone Temple Pilots - Still Remains
-------------------------------------------------------------------------------
Transcribed by:  Cedric Franklin

Tuning: EADGBE

Intro:	
e|------------------------------------|
B|--3/5--5-5-5--5-3/5-5-5-3/5-5-5-----|
G|--4/6--6-6-6--6-4/6-6-6-4/6-7-6-----|
D|--5/7--7-7-7--7-5/7-7-7-5/7-7-7-----| 4x
A|------------------------------------|
E|------------------------------------|

e|----------5------|
B|--2---5---3------|
G|--2---6---4------|
D|--2---7---5------|
A|-----------------|
E|-----------------|

Verse:
e|------------------------------------|
B|--3/5--5-5-5--5-3/5-5-5-3/5-5-5-----|
G|--4/6--6-6-6--6-4/6-6-6-4/6-7-6-----|
D|--5/7--7-7-7--7-5/7-7-7-5/7-7-7-----| 4x
A|------------------------------------|
E|------------------------------------|

Pre-Chorus:
e|---------------0--0--0--0--0--0--------------0--0--0--0--0--0----|
B|--3/5--5-5-5---5--5--3--3--3--3------3/5--5--5--5--3--3--3--3----|
G|--4/6--6-6-6---4--4--4--4--2--2------4/6--6--4--4--4--4--2--2----|
D|--5/7--7-7-7---6--6--5--5--4--4------5/7--7--6--6--5--5--4--4----|
A|-----------------------------------------------------------------|
E|-----------------------------------------------------------------|
[ Tab from: http://www.guitaretab.com/s/stone-temple-pilots/18525.html ]
Chorus:
e|--3--3-3-3--5-5-5---5-5-5--7--7---7---7-----3--3-3-3--3-3-3--5-5-5-7--7---7---7--x-x--|
B|--4--4-4-4--6-6-6---8-8-8--10-10--10--10----6--6-6-6--5-5-5--8-8-8-10-10--10--10-x-x--|
G|--5--5-5-5--7-7-7---7-7-7--9--9---9---9-----5--5-5-5--5-5-5--7-7-7-7--9---9---9--x-x--|
D|--5--5-5-5--7-7-7---5-5-5--7--7---7---7-----3--3-3-3--3-3-3--5-5-5-7--7---7---7--x-x--|
A|--3--3-3-3--5-5-5---5-5-5--7--7---7---7-----3--3-3-3--3-3-3--5-5-5-7--7---7---7--x-x--|
E|--------------------------------------------------------------------------------------|

e|--8----8----8----8-----7--7--7-------5-5-5-7--7---7---7-----|
B|----10---10---10---10---8--8--8------8-8-8-10-10--10--10----|
G|--------------------------------9\7--7-7-7-7--9---9---9-----|
D|-------------------------------------5-5-5-7--7---7---7-----|
A|-------------------------------------5-5-5-7--7---7---7-----|
E|------------------------------------------------------------|

e|--8----8----8----8-----7--7--7-------5-5-5-7--7----|
B|----10---10---10---10---8--8--8------8-8-8-10-10---|
G|--------------------------------9\7--7-7-7-7--9----|
D|-------------------------------------5-5-5-7--7----|
A|-------------------------------------5-5-5-7--7----|
E|---------------------------------------------------|


Interlude:
e|---7--7---7--7----7--7---7---7--7--7-----|
B|---10-10--10-10---10-10--10--10-10-10----|
G|---9--9---9--9----9--9---9---9--9--9-----|
D|---7--7---7--7----7--7---7---7--7--7-----| 4x
A|---7--7---7--7----7--7---7---7--7--7-----|
E|-----------------------------------------|

Order:

Intro
Verse
Pre-Chorus
Chorus
Verse
Pre-Chorus
Chorus
Interlude
Verse
Pre-Chorus
Chorus


| /  slide up
| \  slide down
| h  hammer-on
| p  pull-off
| ~  vibrato
| +  harmonic
| x  Mute note
===============================================================================
Related for Still Remains tab
Advertisement will be closed in 10 seconds