Song name
# A B C D E F G H I J K L M N O P Q R S T U V W X Y Z

Stone Temple Pilots - Dead And Bloated tab

“Dead and Bloated” by the Stone Temple Pilots

Drop-D Tuning
-------------------------------------------------------------------------
-------------------------------------------------------------------------
-------------------------------------------------------------------------
-0---0------6\5\3/5\3-0---0----6\5\3/5\3-0---0----6\5\3/5-----6\5\3/5----
-0---0------6\5\3/5\3-0---0----6\5\3/5\3-0---0----6\5\3/5-----6\5\3/5----
-0---0------6\5\3/5\3-0---0----6\5\3/5\3-0---0----6\5\3/5-----6\5\3/5----

                            P.M.------------|
-------------------------------------------------
-------------------------------------------------
--4----4-----------------------------------------
--4----4--5-----5--5----2--2-2-2--2-2--2-2-2-----
--2----2--5-----5--5----2--2-2-2--2-2--2-2-2-----
----------5-----5--5----2--2-2-2--2-2--2-2-2-----

P.M.-----------------------------|
------------------------------------
------------------------------------
------------------------------------
--4-4-4-2-4-4-4-2-4-2-4-2-4-2-4-2---
--4-4-4-2-4-4-4-2-4-2-4-2-4-2-4-2---
--4-4-4-2-4-4-4-2-4-2-4-2-4-2-4-2---

                                   P.M.---|
------------------------------------------------------------------------
------------------------------------------------------------------------
--4-------0-------------------------------------------------------------
--4\---3--2-------5\---2--5\---2--2-2-2-2-5\---2--5\---2--2-2-2-2-------
--2-------2-------5\---2--5\---2--2-2-2-2-5\---2--5\---2--2-2-2-2-------
------------------5\---2--5\---2--2-2-2-2-5\---2--5\---2--2-2-2-2-------

Those are all of the parts of the song.  figure out where they go by
listening to the song
STP RULES!
Tap to rate this tab
# A B C D E F G H I J K L M N O P Q R S T U V W X Y Z