Song name
# A B C D E F G H I J K L M N O P Q R S T U V W X Y Z

Stone Temple Pilots - Out Of Time tab

Stone Temple Pilots - 'Out of Time'
2013 released single with Chester Bennington (vocals)
Eb tuning
tabbed by jjhand


Intro/Chorus - play 4x

eb|--------------------------------|
Bb|--------------------------------|
Gb|--------------------------------|
Db|------5-----5-7---------5---7-7-|
Ab|--5-7---7-5-----0-5-7---5---7-7-|
Eb|----------------------0-3---5-5-|




Verse
    play 3x                                 4th bar
|------------------------------------|   -----------------------------------|
|------------------------------------|   -----------------------------------|
|------------------------------------|   -----------------------------------|
|--9----9-8---x-9----9-8---x-x-x-x-x-|   --9----9-8---x-9----9-8------------|
|--7----7-7---x-7----7-7---x-x-x-x-x-|   --7----7-7---x-7----7-7----5/7--5--|
|------------------------------------|   ---------------------------3/5--3--|

"Longing is the animal inside you when you bleed"
"Suffering is critical in finding what you need"


  play 2x
|------------------------------------|-----------------------------------|
|------------------------------------|-----------------------------------|
|------------------------------------|-----------------------------------|
|--9----9-8---x-9----9-8---------5---|--9----9-8---x-9----9-8------------|
|--7----7-7---x-7----7-7-----5-7-----|--7----7-7---x-7----7-7----5/7--5--|
|------------------------------------|---------------------------3/5--3--|
"Deliverance is evidence, theres more than what you say"
"Pain is there the moment that you wake up from your dreams"



Prechorus
|-----------------------|------------------------|
|--5-----5-x-5-----5----|-3-----3---2------2-----|
|--7-----7-x-6-----6----|-4-----4---2------2-----|
|--7-----7-x-7-----7----|-4-----4---2------2-----|
|--0-----0-x-0-----0----|-0-----0---0------0-----|
|-----------------------|------------------------|
"Oh,                  I know you can't hide"

|-----------------------|-----------0---2---3-3-3-|
|--5-----5-x-5-----5----|-3-----3---2---3---5-5-5-|
|--7-----7-x-6-----6----|-4-----4---2---4---5-5-5-|
|--7-----7-x-7-----7----|-4-----4---2-------------|
|--0-----0-x-0-----0----|-0-----0---0-------------|
|-----------------------|-------------------------|
"Oh,                when you look     inside  your-"






Chorus - Play Intro Again 3x, then play this ending:

|-------------------------------|
|-------------------------------|
|-------------------------------|
|-------------------------------|
|------5-----5-7----------------|
|--5-7---7-5-----0-3-5-3qb-0----|

"self... You've got to cross that line"
"Yeah,   you're running out of time"  



Play Verse Riff Again - Lyrics:

"Loneliness is beautiful, it leads you home again
Happiness is overrated, joy is infinite
Liberate the hate you feel before it's permanent
Smile when it hurts, it works like mother's medicine"



Play Prechorus Again


Play Chorus riff Again, but without Chorus ending bar



Solo
e|-10-------------------------------|---------------------------------|
B|-13b----b13r-12----12h13p12-10h12-|-10--12--10----------------------|
G|----------------------------------|---12--12----12------9h10p9----9-|
D|----------------------------------|---------------12-----------12---|
A|----------------------------------|---------------------------------|
E|----------------------------------|---------------------------------|

e|----------------------------|----------------------------------|
B|------10--13-12~~~\---------|------------------------/10-12-10-|
G|-10h12--12-----------9-11-9-|-11b12----b12---b12~~-------------|
D|----------------------------|----------------------------------|
A|----------------------------|----------------------------------|
E|----------------------------|----------------------------------|

e|------10---10---10------------------|-------15----------------17---|
B|-13b15--b15--b15--12b14r--10-----14-|-17b20----b20r--14~~~-/17--17-|
G|-------------------------------14---|------------------------------|
D|------------------------------------|------------------------------|
A|------------------------------------|------------------------------|
E|------------------------------------|------------------------------|

e|------17-17-----------------------------|--------------------------------|
B|-20b22-----20-20b22~~---19-20-19tr20-17-|-19-17-----17------20b22~~------|
G|----------------------------------------|------19-17--17-----------------|
D|----------------------------------------|---------------19---------------|
A|----------------------------------------|--------------------------------|
E|----------------------------------------|--------------------------------|




Bridge to Ending - slight mutes
e|---------------------|--------------------|----------------------|
B|---------------------|--------------------|----------------------|
G|---------------------|--------------------|----------------------|
D|---------------------|--------------------|----------------------|
A|---------------------|--------------------|----------------------|
E|-0-0-0-0-0-----------|-3-3-3-3-3----------|-5-5-5-5-5------------|

"You've got to learn your lesson" 
"to see what you've been missing"
"You've got to cross that line"

|-------------------------------|
|-------------------------------|
|-------------------------------|
|-------------------------------|
|------5-----5-7----------------|
|--5-7---7-5-----0-3-5-3qb-0----|




Final Chorus - Slightly different

     play 3x                             4th bar
eb|--------------------------------|     |--------------------------|
Bb|--------------------------------|     |--------------------------|
Gb|--------------------------------|     |--------------------------|
Db|------5-----5-7---------5---7-7-|     |------5-----5-7-5-7brb9---|
Ab|--5-7---7-5-----0-5-7---5---7-7-|     |--5-7---7-5---------------|
Eb|----------------------0-3---5-5-|     |--------------------------|


eb|--------------------------------|--------------------------------|
Bb|--------------------------------|--------------------------------|
Gb|--------------------------------|--------------------------------|
Db|------5-----5-7---------5---7-7-|------5-----5-7-----------------|
Ab|--5-7---7-5-----0-5-7---5---7-7-|--5-7---7-5-----0-5-7-----------|
Eb|----------------------0-3---5-5-|------------------------3pb5r~~-|

eb|--------------------------------|------------------------------|
Bb|--------------------------------|------------------------------|
Gb|--------------------------------|------------------------------|
Db|------5-----5-7---------5---7-7-|------------------------------|
Ab|--5-7---7-5-----0-5-7---5---7-7-|------5-----5-7---------------|
Eb|----------------------0-3---5-5-|--5-7---7-5-----0-3-5-3qb-0---|




KEY
************************************

| /   slide up
| \   slide down
| h   hammer-on
| p   pull-off
| tr  trill (play a hammer-on and pull-off)
| ~   vibrato
| +   harmonic
| x   Mute note
| b   Bend
| pb  Pre-bend
| r   Bend release
| qb  quarter step bend (slight pitch change)
| brb Bend release bend
************************************
Tap to rate this tab
# A B C D E F G H I J K L M N O P Q R S T U V W X Y Z