Song name
# A B C D E F G H I J K L M N O P Q R S T U V W X Y Z

Story Of The Year - Take Me Back tab

Help us improve GuitareTab! Take a short survey!
-------------------------------------------------------------------------------
			     STORY OF THE YEAR - Take me back (solo)
-------------------------------------------------------------------------------
Tabbed by: Sárosi Gábor
Email: nyugisszorny@freemail.hu

Tuning: Standard

Note: Where's + after the number, use pinch harmonic on the specified fret, 
but do not mute the fundamental. You can achieve this by hang out a bit your
thumb over the pick, and hit the note. Touch it with both the pick and your
thumb. It doesn't matter where you do this, you'll get a way louder harmonic
on the fundamental.


E|----------------------------------------------------------------7+-6+------|
B|-----------------------------------------------7-9b-9b-9~-7+-7+-------7+---|
G|-----------------------------------------6-6-8-----------------------------|
D|-6-8-9--9-8---6-------6---6----6-8-9-8-9-----------------------------------|
A|------------9---9-6-9---9---9----------------------------------------------|
E|---------------------------------------------------------------------------|

E|-7+-6+-----|
B|--------7+-|
G|-----------|
D|-----------|
A|-----------|
E|-----------|

E|---------------------------------------------------------------------------|
B|---------------------------------------------------------------------------|
G|-9-8-----------6b-6~---------------------------------------11b-11b-11b-----|
D|-----9-8-6-8-9--------9p8p6h8-11p9p8h9-13p11p9h11-14p13p11-----------------|
A|---------------------------------------------------------------------------|
E|---------------------------------------------------------------------------|

E|----11---11---11------------|
B|-11b--11b--11b--11b-11b-11~-|
G|----------------------------|
D|----------------------------|
A|----------------------------|
E|----------------------------|

| /  slide up
| \  slide down
| h  hammer-on
| p  pull-off
| ~  vibrato
| +  harmonic
| x  Mute note
===============================================================================
Related for Take Me Back tab