Song name
# A B C D E F G H I J K L M N O P Q R S T U V W X Y Z

Strata - Never There tab

Tabbed by:Marco Deustua
Email:chevemarc@hotmail.com
Tuning: DbAbDbGbBbEb

This is the real tuning of this song!!

Intro/Verse: 
|------------------------------------|
|------------------------------------|
|---2-2-2-2-3-3-3-3-2-2-2-2-5-5-3-3--|
|--0-0-0-0-0-0-0-0-0-0-0-0-0-0-0-0---|
|------------------------------------|
|------------------------------------|

Chorus: with distortion
|---------------------------|
|---------------------------|
|--10-----------------------|
|--10---10---8---10---------|
|---8---10---8---10---------|
|-------10---8---10---------|

Bridge: x3
|-------------------------------------------|
|-------------------------------------------|
|-----------------------------10--9---------|
|--8-0-0--0---8-0-0--0---8-0---x--x---------| 
|--8-0-0--0---8-0-0--0---8-0---8--7---------|
|--8-0-0--0---8-0-0--0---8-0----------------|
     . .  .     . .  .    

Then:
|---------------------------|
|---------------------------|
|---------------------------|  
|--8-0-0--0---8-0-0--0---8--|
|--8-0-0--0---8-0-0--0---8--|
|--8-0-0--0---8-0-0--0---8--|
     . .  .     . .  .   .

Chorus:
|---------------------------|
|---------------------------|
|--10-----------------------|
|--10---10---8---10---------|
|---8---10---8---10---------|
|-------10---8---10---------|

THATS IT THIS IS MY FIRST TAB :) ENJOY!!!
Tap to rate this tab
 
# A B C D E F G H I J K L M N O P Q R S T U V W X Y Z