Song name
# A B C D E F G H I J K L M N O P Q R S T U V W X Y Z

Strata - Stay Young tab

Song: Stay Young
Artist: Strata
Album: Strata Presents the End of the World
Year: 2007

Intro/Verse 1 Clean Guitar with Echo

Tremolo pick

E--4----|
B-------|
G-------|
D-------|
A-------|
E-------|

Pre-Chorus

E--------------|
B--------------|
G--5--6--8 x16-|
D--------------|
A--------------|
E--------------|

Chorus (Two guitars) (Clean)

Guitar 1            Tremolo pick

E--8--9--11          E--8--6-|
B----------          B-------|
G---------- x12 then G-------|
D----------          D-------|
A----------          A-------|
E----------          E-------|

Guitar 2

E--------------|
B--------------|
G--5--6--8 x12-|
D--------------|
A--------------|
E--------------|

Interlude (Clean with Echo)

E-----------------------------------------------------------------|
B----------13----13--14--13---------------------13-----13--14--13-|
G--13--13-----13------------13--13--13--13--13------13------------|
D-----------------------------------------------------------------|
A-----------------------------------------------------------------|
E-----------------------------------------------------------------|

E--------------------------------------------------------------------------|
B---------------------13----13--14--13--------------------13----13--14--13-|
G--13--13--13--13--13----13------------13--13--13--13--13----13------------|
D--------------------------------------------------------------------------|
A--------------------------------------------------------------------------|
E--------------------------------------------------------------------------|

E-------------|
B-------------|
G--13--13--13-|
D-------------|
A-------------|
E-------------|

Verse 2

Tremolo pick

E--8--
B-----
G-----
D-----
A-----
E-----

Pre-Chorus

E--------------|
B--------------|
G--5--6--8 x16-|
D--------------|
A--------------|
E--------------|

Guitar 1            Tremolo pick

E--8--9--11          E--8--6-|
B----------          B-------|
G---------- x12 then G-------|
D----------          D-------|
A----------          A-------|
E----------          E-------|

Guitar 2

E--------------|
B--------------|
G--5--6--8 x12-|
D--------------|
A--------------|
E--------------|

Bridge (Two guitars) NOTE: For this part Ryan Hernandez plays one part and has the other 
on a loop pedal. Now if you're just one guitarist,
then you can play it like he does with the loop pedal, just pick one part and play that, 
or you can play them both as octaves.

Guitar 1

Tremolo pick

E--6--8--4--6--8-|
B----------------|
G----------------|
D----------------|
A----------------|
E----------------|

Guitar 2

Tremolo pick

E----------------|
B----------------|
G--3--5--1--3--5-|
D----------------|
A----------------|
E----------------|

Guitar 1 (Distorted)

E--------------x-|
B--------------x-|
G--------------x-|
D--------------x-| STRIKE BEHIND NUT
A--------------x-|
E--PICKSLIDE---x

E-------------------------------------|
B-------------------------------------|
G-------------------------------------|
D--6--6--6--6--6--6--6--6--6--6--6--6-|
A--6--6--6--6--6--6--6--6--6--6--6--6-|
E--4--4--4--4--4--4--4--4--4--4--4--4-|

E-------------------------------------|
B-------------------------------------|
G-------------------------------------|
D--3--3--3--3--3--3--3--3--3--3--3--3-|
A--3--3--3--3--3--3--3--3--3--3--3--3-|
E--1--1--1--1--1--1--1--1--1--1--1--1-|

E------------------------------------------------|
B------------------------------------------------|
G------------------------------------------------|
D-11--11--11--11--11--11--11--11--11--11--11--11-|
A-11--11--11--11--11--11--11--11--11--11--11--11-|
E-9---9---9---9---9---9---9---9---9---9---9---9--|

E-------------------------------------------------|
B-------------------------------------------------|
G-------------------------------------------------|
D--13--13--13--13--13--13--13--13--13--13--13--13-|
A--13--13--13--13--13--13--13--13--13--13--13--13-|
E--11--11--11--11--11--11--11--11--11--11--11--11-|

Guitar 2 (Distorted)

E-------------------------------------|
B-------------------------------------|
G-------------------------------------|
D--6--6--6--6--6--6--6--6--6--6--6--6-|
A--6--6--6--6--6--6--6--6--6--6--6--6-|
E--4--4--4--4--4--4--4--4--4--4--4--4-|

E-------------------------------------|
B-------------------------------------|
G-------------------------------------|
D--3--3--3--3--3--3--3--3--3--3--3--3-|
A--3--3--3--3--3--3--3--3--3--3--3--3-|
E--1--1--1--1--1--1--1--1--1--1--1--1-|

E---------------------------------------------------------|
B---------------------------------------------------------|
G--13--13--13--13--13--13--13--13--13--12--12--12--12--12-|
D--x---x---x---x---x---x---x---x---x---x---x---x---x---x--|
A--11--11--11--11--11--11--11--11--11--10--10--10--10--10-|
E---------------------------------------------------------|

E----------------------------------------------------------------------------|
B----------------------------------------------------------------------------|
G--15--15--15--15--15--15--15--15--15--17--17--17--17--17--15--15--15--15-15-|
D--x---x---x---x---x---x---x---x---x---x---x---x---x---x---x---x---x---x--x--|
A--13--13--13--13--13--13--13--13--13--15--15--15--15--15--13--13--13--13-13-|
E----------------------------------------------------------------------------|

Guitar 1 (Distorted)

E-------------------------------------|
B-------------------------------------|
G-------------------------------------|
D--6--6--6--6--6--6--6--6--6--6--6--6-|
A--6--6--6--6--6--6--6--6--6--6--6--6-|
E--4--4--4--4--4--4--4--4--4--4--4--4-|

E-------------------------------------|
B-------------------------------------|
G-------------------------------------|
D--3--3--3--3--3--3--3--3--3--3--3--3-|
A--3--3--3--3--3--3--3--3--3--3--3--3-|
E--1--1--1--1--1--1--1--1--1--1--1--1-|

E------------------------------------------------|
B------------------------------------------------|
G------------------------------------------------|
D-11--11--11--11--11--11--11--11--11--11--11--11-|
A-11--11--11--11--11--11--11--11--11--11--11--11-|
E-9---9---9---9---9---9---9---9---9---9---9---9--|

Guitar 2 (Distorted)

E-------------------------------------|
B-------------------------------------|
G-------------------------------------|
D--6--6--6--6--6--6--6--6--6--6--6--6-|
A--6--6--6--6--6--6--6--6--6--6--6--6-|
E--4--4--4--4--4--4--4--4--4--4--4--4-|

E-------------------------------------|
B-------------------------------------|
G-------------------------------------|
D--3--3--3--3--3--3--3--3--3--3--3--3-|
A--3--3--3--3--3--3--3--3--3--3--3--3-|
E--1--1--1--1--1--1--1--1--1--1--1--1-|

E---------------------------------------------------------|
B---------------------------------------------------------|
G--13--13--13--13--13--13--13--13--13--12--12--12--12--12-|
D--x---x---x---x---x---x---x---x---x---x---x---x---x---x--|
A--11--11--11--11--11--11--11--11--11--10--10--10--10--10-|
E---------------------------------------------------------|

E-------------------------------------|
B-------------------------------------|
G--15--15--15--15--15--15--15--15--15-|
D--x---x---x---x---x---x---x---x---x--|
A--13--13--13--13--13--13--13--13--13-|
E-------------------------------------|

E--------------------------------------------------------------------|
B--------------------------------------------------------------------|
G--8--8--8--8--8--10-10-10-10-10--12--12--12--12--12--12--12--12--12-|
D--x--x--x--x--x--x--x--x--x--x---x---x---x---x---x---x---x---x---x--|
A--6--6--6--6--6--8--8--8--8--8---10--10--10--10--10--10--10--10--10-|
E--------------------------------------------------------------------|

E--------------|
B--------------|
G--5--6--8 x12-|
D--------------|
A--------------|
E--------------|

E--------------------------------------------------------------------|
B--------------------------------------------------------------------|
G--8--8--8--8--8--10-10-10-10-10--12--12--12--12--12--12--12--12--12-|
D--x--x--x--x--x--x--x--x--x--x---x---x---x---x---x---x---x---x---x--|
A--6--6--6--6--6--8--8--8--8--8---10--10--10--10--10--10--10--10--10-|
E--------------------------------------------------------------------|

E----
B----
G--13
D--x
A--11
E----

Verse (Clean)

Tremolo pick

E--4
B---
G---
D---
A---
E---

Outro

Tremolo pick

E--8--9--6--8--4--6--8--6--4--3--1--3--4-|
B----------------------------------------|
G----------------------------------------|
D----------------------------------------|
A----------------------------------------|
E----------------------------------------|

Song Order:

Intro
Verse
Pre-Chorus
Interlude
Verse
Pre-Chorus
Chorus
Bridge
Verse
Outro

I hope you enjoy this. It took me ages to do because I accidently clicked off the page 
and deleted it all! Frustrating!
Tap to rate this tab
# A B C D E F G H I J K L M N O P Q R S T U V W X Y Z