Song name
# A B C D E F G H I J K L M N O P Q R S T U V W X Y Z

Stray Bullets - Eyesore tab

Stray Bullets
... The Slings and Arrows of Outrageous Misfortune...
Eyesore


Guitar 1:
--x-8--x-8--x-8--x-8--x-3-x-3-x-6-x-6---|
--x-8--x-8--x-8--x-8--x-3-x-3-x-6-x-6---|
--x-9--x-9--x-9--x-9--x-4-x-4-x-7-x-7---|
--x-10-x-10-x-10-x-10-x-5-x-5-x-8-x-8---|
----------------------------------------|  whole song
----------------------------------------|


Guitar 2:
------------------------------------|
------------------------------------|
----5---------------------------3---|
---5---------------------5------3---|
---3---------------------5------1---|  whole song
-------------------------3----------|
Tap to rate this tab
 
# A B C D E F G H I J K L M N O P Q R S T U V W X Y Z