Song name
# A B C D E F G H I J K L M N O P Q R S T U V W X Y Z

Stray Bullets - Bender tab

Pretty simple. Do the upstroke ska style picking for the verses, obviously.

Verse/Intro
e-5-x-4-x-3-x-2---------------|
B-5-x-5-x-3-x-3---------------| (x4 each)
G-6-x-4-x-4-x-2---------------|
D-----------------------------| x2
A-----------------------------|
E-----------------------------|

e-5-5-5-5--4-S-----------3-3-3-3-2-2-2-2-|
B-5-5-5-5--5-T---"YEAH---3-3-3-3-3-3-3-3-|
G-6-6-6-6--4-O---RIGHT!"-4-4-4-4-2-2-2-2-| (only 1st verse)
D------------P---------------------------|
A----------------------------------------|
E----------------------------------------|

e-5-5-5-5-4-4-4-4-3------2------|
B-5-5-5-5-5-5-5-5-3-hold-3-hold-|
G-6-6-6-6-4-4-4-4-4------2------|
D-------------------------------|
A-------------------------------|
E-------------------------------|

Chorus: "Line em up boys..."
e-----------------------------|
B-----------------------------|
G-55555555-77777777-----------|
D-55555555-77777777-77777777--| x3
A-33333333-55555555-77777777--|
E-------------------55555555--|

e-----------------------------|
B-----------------------------|
G-55555555-77777777-----------|
D-55555555-77777777-7---------|
A-33333333-55555555-7--(Hold)-|
E-------------------5---------|

Solo:
e-5-555-4-2-0-4--------3-33-202-----------|
B--5-------------5---5---------3-3--3235--|
G------------------4----------------------|
D-----------------------------------------|
A-----------------------------------------|
E-----------------------------------------|

e-5-----5--7-4-----------7--5-4-|
B---5----------5-2-3-3/7--------|
G-------------------------------|  (immediately go to bridge)
D-------------------------------|
A-------------------------------|
E-------------------------------|

Bridge:
e----5-----4-----3------2----------|
B----5-x3--5-x3--3-x3---3-x3-------|
G----6-----4-----4---77-2----------| (3 times - not "pause 3")
D-77-----22----55----77------------|
A-77-----22----55----55------------|
E-55-----00----33------------------|


ORDER:
verse
chorus
verse
chorus
solo
bridge
verse
chorus
chorus
Tap to rate this tab
 
# A B C D E F G H I J K L M N O P Q R S T U V W X Y Z