Song name
# A B C D E F G H I J K L M N O P Q R S T U V W X Y Z

Street Pharmacy - Degenerate tab

Intro
 e|-----------------------------|    |---------------0-|
 b|-------1-----1-----1-----1---|    |-------1-----1-1-|
 g|-----2-----0-----2-----0---0-|    |-----2-----0---2-|
 d|---3-------------------------|    |---3-----------2-|
 a|---------3-----0-------------|    |---------3-----0-|
 e|---------------------3-------| X3 |-----------------| X1

verse
figure out the strumming
 e|---1--------------------------0----------3-|
 b|---1-----------1--------------1----------3-|
 g|---2-----------0--------------2----------0-|
 d|---3-----------2--------------2----------0-|
 a|---------------3--------------0----------2-|
 e|-----------------------------------------3-|

chorus
figure out strumming
 e|---1------x-x-x-x-x-x-x-x-x-x-x-x-x-x----------3-|
 b|---1------x-x-x-x-x-x-x-x-x-x-x-x-x-x------1---3-|
 g|---2------x-x-x-x-x-x-x-x-x-x-x-x-x-x------0---0-|
 d|---3------x-x-x-x-x-x-x-x-x-x-x-x-x-x------2---0-|
 a|---3------x-x-x-x-x-x-x-x-x-x-x-x-x-x------3---2-|
 e|---1------x-x-x-x-x-x-x-x-x-x-x-x-x-x----------3-|
Tap to rate this tab
 
# A B C D E F G H I J K L M N O P Q R S T U V W X Y Z