Song name
# A B C D E F G H I J K L M N O P Q R S T U V W X Y Z

Strokes - Someday tab

I play this on my acoustic; Im not sure how it sounds on electric. And i know its 
missing a lot of the background stuff. But this is just the basic tune.

Tuning: Standard


e|-----------------------------------|
B|-----------------------------------|
G|-----------------------------------|
D|----0----------------------------0-|
A|--------7----9---7----9---7---7----|
E|-----------------------------------|


(You can mess with the strumming; i like to strum to the beat of the other guitar)
e|---------------------------------------|
B|---------------------------------------|
G|---------------------------------------|
D|----0--------------------------------0-|  (repeat ~5 times)
A|-0------7----9---7----9---7----7-------|
E|---------------------------------------|

(part 2 [not entirely sure how to end it):

e|-------------------------------------------------------|
B|-------------------------------------------------------|
G|-------------------------------------------------------|
D|-----7-----------------------------------------------0-| (4 times)
A|-9-------9---7---7---10---7---5---5---9---5------5-----|
E|-------------------------------------------------------|

e|-----------------------------------|
B|-----------------------------------|
G|-----------------------------------|  
D|----0----------------------------0-|
A|--------7----9---7----9---7---7----|
E|-----------------------------------|

e|---------------------------------------|
B|---------------------------------------|
G|---------------------------------------|
D|----0--------------------------------0-|  (repeat 2 times)
A|-0------7----9---7----9---7----7-------|
E|---------------------------------------|


e|-------------------------------------------------------|
B|-------------------------------------------------------|
G|-------------------------------------------------------|
D|-----7-----------------------------------------------0-| (4 times)
A|-9-------9---7---7---10---7---5---5---9---5------5-----|
E|-------------------------------------------------------|
Tap to rate this tab
 
# A B C D E F G H I J K L M N O P Q R S T U V W X Y Z