Song name
# A B C D E F G H I J K L M N O P Q R S T U V W X Y Z

Strokes - Machu Picchu tab

The Strokes - Machu Picchu
--------------------------

D#m  C#  G#
11   9   11
11   9   13
12   10  13
13   11  13
13   11  11
11   9   11



INTRO:

    D#m          C#        D#m         C#  G#
e---11-11-11-11--9-9-9-9---11-11-11-11-9-9-8-8------|
b---11-11-11-11--9-9-9-9---11-11-11-11-9-9-9-9------|
g---------------------------------------------------|
d---------------------------------------------------|
a---------------------------------------------------|
e---------------------------------------------------|

VERSE:
(I'm putting your patience...)
D#m   C#
D#m   C# G#
x2

e--------------------|
b---6-4-6-7----------|
g--------------------|

VERSE 2:
(Slippin' your body through the street...)
D#m  C#
D#m  C# G#
x2
hold G# (And now you've heard that...)


CHORUS:
D#m              G#
(Weathers turn to grey...)


RIFF 1:
  D#m                     G#
e---------------------------------------------------|
b-11------------11--------13-----------13-----------|
g---11--11-11h13--13-11-----13-13-13h15---15-13-----|  x2
d---------------------------------------------------|
a---------------------------------------------------|
e---------------------------------------------------|


VERSE 3:
(I'm putting your patience to the test...)
D#m  C#
D#m  C# G#
x2
hold G# (And now you've seen that...)


CHORUS:
D#m         G#
(Weathers turn to grey...)


RIFF 2:
 G#                      D#m
e---------------------------------------------------|
b-13------------13--------11-----------11-----------|
g---13--13-13h15--15-13-----11-11-11h13---13-11-----|  x2
d---------------------------------------------------|
a---------------------------------------------------|
e---------------------------------------------------|


RIFF 2:
(Tell us...)

VERSE:
(All... right. Why are you waitin'?)

CHORUS:
(Life turns to dust...)

RIFF 2: x2
Tap to rate this tab
 
# A B C D E F G H I J K L M N O P Q R S T U V W X Y Z