Song name
# A B C D E F G H I J K L M N O P Q R S T U V W X Y Z

Strokes - Someday Acoustic chords

Highlighted       Show chord diagrams
*Dan's edited

INTRO:

e|-5-7-----9-7-----9-7-----7-5--------------------|
B|-5-5-----7-7-----7-7-----5-5--------------------|
G|-6-6-----7-7-----7-7-----6-6--------------------|
D|------------------------------------------------|
A|------------------------------------------------|
E|------------------------------------------------|
Chords
   A  Bm D  E  F#m
e|-5--7--5--7--9---|
B|-5--7--7--9--10--|
G|-6--7--7--9--11--|
D|-7--9--7--9--11--|
A|-7--9--5--7--9---|
E|-5--7--x--x--x---|


VERSE:

A
In many ways
        Bm   
They'll miss the good old days
D        A
Someday, someday

A     
Yeah, it hurts to say
    Bm    
But I want you to stay
D          A
Sometimes, sometimes

A
When we was young
    Bm
Oh, man, did we have fun
D        A
Always, always

A  
Promises
     Bm      
They break before they're made
D          A
Sometimes, sometimes

CHORUS:
    A              E           F#m
Oh, my ex says I'm lacking in depth
D            A
I will do my best
    A              E           F#m
You say you want to stay by my side
D                        A
Darling, your head's not right
      A              E           F#m
I see alone we stand, together we fall apart
      D                 A 
Yeah, I think I'll be alright
    A              E           F#m
I'm working so I won't have to try so hard
D                    A
Tables they turn sometimes
        E
Oh, someday
                            A
Now I ain't wasting no more time

And now my fears
They come to me in threes
So I  sometimes

Say faith my friend
You say the strangest things
I find sometimes

CHORUS:

The only big difference from the other posts is in the chorus.
cheers
-Dan
Tap to rate this tab
 
# A B C D E F G H I J K L M N O P Q R S T U V W X Y Z