Guitaretab - guitar tabs
Song name
# A B C D E F G H I J K L M N O P Q R S T U V W X Y Z

Strokes - Last Night tab

The Strokes  Last Night (Solo Tab)
----------------------------------------------------
b = bend to this note
/  = slide
x  = dead note
x2 = play entire section twice
p = pull off

e|----------------------------------------------------|
B|-18b20----18p16-----16--1818p16----16--------------|
G|---------------- 17---------------17----------------|
D|----------------------------------------------------|
A|----------------------------------------------------|
E|----------------------------------------------------|
[ Tab from: http://www.guitaretab.com/s/strokes/120344.html ]
e|-----------------------------------------------------------|
B|--/16----15------------------------------------------------|       x2
G|------14-------------15-15b17~ -15b17 15b17----------------|
D|-------------17--------------------------------------------|
A|-----------------------------------------------------------|
E|-----------------------------------------------------------|

e|---------------------------------------------------|
B|---------------------------------------------------|
G|--8p5--8p5--8p5--8p5--8----------------------------|
D|---------------------------------------------------|
A|---------------------------------------------------|
E|---------------------------------------------------|

Strum G chord 5 times

      G
e|-----x---------------------------------------------|
B|----12------15b17---15b17---15b17------------------|
G|----12---------------------------------------------|
D|----12---------------------------------------------|
A|---------------------------------------------------|
E|---------------------------------------------------|
Related for Last Night tab