Song name
# A B C D E F G H I J K L M N O P Q R S T U V W X Y Z

Strokes - The End Has No End tab

-_- (-_-)-_- (-_-)
		   The end has no end - The strokes


Tabbed by:bags


Tuning:EADGBE
(10 s) palm mute
e|-444444444444444444444/-----444444444444444444444444444444444444444--------|
B|-666666666666666666666/x10s-444444444444444444444444444444444444444-x8s----|
G|---------------------------------------------------------------------------|
D|---------------------------------------------------------------------------|
A|---------------------------------------------------------------------------|
E|---------------------------------------------------------------------------|

e|-44444444444444444444444444-------4444444444444444444444444444-------------|
B|-44444444444444444444444444-x8s---4444444444444444444444444444-x5----------|
G|-55555555555555555555555555-------6666666666666666666666666666-------------|
D|---------------------------------------------------------------------------|
A|---------------------------------------------------------------------------|
E|---------------------------------------------------------------------------|

e|-----------/-------------/------------/------------/-----------------------|
B|--9-7-9-14-/--9-7-9-7-14-/-9-7-9-7-13-/-9-7-9-7-13-/--x4-------------------|
G|-----------/-------------/------------/------------/-----------------------|
D|---------------------------------------------------------------------------|
A|---------------------------------------------------------------------------|
E|---------------------------------------------------------------------------|
                             The end has no...........
e|-----------/-------------/--------------------/---------------------------|
B|--9-7-9-13-/--9-7-9-7-13-/--x1---------------/--x4------------------------|
G|-------------------------/----11-13-11-15-13-/----------------------------|
D|--------------------------------------------------------------------------|
A|--------------------------------------------------------------------------|
E|--------------------------------------------------------------------------|
solo
e|---------------------------------------------------------------------------|
B|-------------15--14--13--12------------------------------------------------|
G|-15--14--13------------------12--13----------------------------------------|
D|-------------------------------------12-13-12-13-12-12-12-13-12-13-12------|
A|-------------------------------------12-13-12-13-12-12-12-13-12-13-12------|
E|---------------------------------------------------------------------------|

e|---------------------------------------------------------------------------|
B|-p7-p7-p7-p7-p7-p7-p7-p9-p9-p9-p9-p9-p9-p9-p11-p11-p11-p11-p11-p11-p11p11--|
G|---------------------------------------------------------------------------|
D|---------------------------------------------------------------------------|
A|---------------------------------------------------------------------------|
E|---------------------------------------------------------------------------|

e|---------------------------------------------------------------------------|
B|-p13-p13-p13-p13-p13-p13-p13-----------------------------------------------|
G|---------------------------------------------------------------------------|
D|---------------------------------------------------------------------------|
A|---------------------------------------------------------------------------|
E|---------------------------------------------------------------------------|

e|-----------------------4-4-4-4-4-4-4-4-4-/---------------------------|
B|------------------/----4-4-4-4-4-4-4-4-4-/---------------------------|
G|--5-5-5-5-5-5-5-5-/----5-5-5-5-5-5-5-5-5-/---x8s---------------------|
D|--5-5-5-5-5-5-5-5-/x7s-6-6-6-6-6-6-6-6-6-/---------------------------|
A|--4-4-4-4-4-4-4-4-/----6-6-6-6-6-6-6-6-6-/---------------------------|
E|-----------------------4-4-4-4-4-4-4-4-4-/---------------------------|

e|-----------/-------------/------------/------------/-----------------------|
B|--9-7-9-14-/--9-7-9-7-14-/-9-7-9-7-13-/-9-7-9-7-13-/--x4-------------------|
G|-----------/-------------/------------/------------/-----------------------|
D|---------------------------------------------------------------------------|
A|---------------------------------------------------------------------------|
E|---------------------------------------------------------------------------|
                                  The end has no....
e|------------------------------/-----------------/--------------------------|
B|--9-7-9-13-/--9-7-9-7-13-/--x1/-----------------/-x8-----------------------|
G|------------------------------/--11-13-11-15-13-/--------------------------|
D|---------------------------------------------------------------------------|
A|---------------------------------------------------------------------------|
E|---------------------------------------------------------------------------|
esta es la primer tabs y se la dedicoa los brthrs a dads,cabs,japs
| /  slide up
| \  slide down
| h  hammer-on
| p  pull-off
| ~  vibrato
| +  harmonic
| x  Mute note
===============================================================================
Tap to rate this tab
 
# A B C D E F G H I J K L M N O P Q R S T U V W X Y Z