Song name
# A B C D E F G H I J K L M N O P Q R S T U V W X Y Z

Strokes - Juicebox tab

-------------------------------------------------------------------------------
			     Juicebox - Strokes
-------------------------------------------------------------------------------
Tabbed by: Aron S
Email: goodsum@hotmail.com



e|--12--|--------12---------12---------12---------12----------|-12---12--\--|
B|--12--|-11h12------11h12------11h12------11h12------12p10---|-12---14--\--|
G|--12--|---------------------------------------------------9-|-12---14--\--|
D|--12--|-----------------------------------------------------|-12---12--\--|
A|------|-----------------------------------------------------|-------------|
E|------|-----------------------------------------------------|-------------|


e|-10-10--------------------|-9-9--------------------|-8----------------------|-7---------------------|
B|--------10-----11-10-8----|------10-----11-10-8----|------10-----11-10-8----|-----10-----11-10-8----|
G|------------9-----------9-|----------9-----------9-|---9------9-----------9-|---9-----9-----------9-|
D|--------------------------|------------------------|------------------------|-----------------------|
A|--------------------------|------------------------|------------------------|-----------------------|
E|--------------------------|------------------------|------------------------|-----------------------|


e|-10-10--------------------|-9----------------------| 
B|--------10-----11-10-8----|------10-----11-10-8----| 
G|------------9-----------9-|---9------9-----------9-| 
D|--------------------------|------------------------| 
A|--------------------------|------------------------|
E|--------------------------|------------------------|

e|------------------------------------8h11p10p8-----------12-\--|
B|-8---9/10---10h13p12p10-11h14p13p11-----------12p11p10--12-\--|
G|---9------9---------------------------------------------12-\--|
D|--------------------------------------------------------12-\--|
A|--------------------------------------------------------------|
E|--------------------------------------------------------------|



| /  slide up
| \  slide down
| h  hammer-on
| p  pull-off
| ~  vibrato
| +  harmonic
| x  Mute note
===============================================================================
Tap to rate this tab
# A B C D E F G H I J K L M N O P Q R S T U V W X Y Z