Song name
# A B C D E F G H I J K L M N O P Q R S T U V W X Y Z

Strunz And Farah - Jardin tab

this song is from the album "heat of the sun"
these guys are the two best flamenco guitarists around. Jorge Strunz from
Costa Rica and Ardeshir Farah from Iran join to make an unbeatable duo.

Intro: both guitars playing this riff

e|-3-----1-----0-----1------33-----1-----0-----1----------|
B|---3-----3-----3-----3-------3-----3-----3--------------|
G|-2-----2-----2-----2------22-----2-----2-----2----------|
D|-----0-----0-----0-----0-------0-----0-----0------------|
A|--------------------------------------------------------|
E|--------------------------------------------------------|

e|-33-----1-----0-----1-----33-----1h3p1-----0-----1------|
B|----3-----3-----3-----3------3---------3-----3----------|
G|-33-----3-----3-----3-----33-----3---------3-----3------|
D|------0-----0-----0-----0------0---------0-----0--------|
A|--------------------------------------------------------|
E|--------------------------------------------------------|

e|-3-----1-----0-----1------33-----1-----0-----1----------|
B|---3-----3-----3-----3-------3-----3-----3--------------|
G|-2-----2-----2-----2------22-----2-----2-----2----------|
D|-----0-----0-----0-----0-------0-----0-----0------------|
A|--------------------------------------------------------|
E|--------------------------------------------------------|

e|-33-----1-----0-----1-----33-----1h3p1-----0-----1------|
B|----3-----3-----3-----3------3---------3-----3----------|
G|-33-----3-----3-----3-----33-----3---------3-----3------|
D|------0-----0-----0-----0------0---------0-----0--------|
A|--------------------------------------------------------|
E|--------------------------------------------------------|

e|-5-5-5-5--5-5-5--3--1--0--1--3--------------------------|
B|-3-3-3-3--3-3-3--3--3--3--3--3--------------------------|
G|-3-3-3-3--3-3-3--3--3--3--3--3--------------------------|
D|--------------------------------------------------------|
A|--------------------------------------------------------|
E|--------------------------------------------------------|

Guitar 2 plays this while guitar 1 plays intro riff

e|-12---------10--------9-------10------------------------|
B|----12---------10-------9--------10---------------------|
G|-12---------10--------9-------10------------------------|
D|-------10---------8-------7---------8-------------------|
A|--------------------------------------------------------|
E|--------------------------------------------------------|

Gtr 1 & 2

e|--------------------------------------------------------|
B|-----8h10p8-8------8-------------8h10p8-8------8--------|
G|-7-7----------10-9---10------7-7----------10-9---10-9-7-|
D|--------------------------------------------------------|
A|--------------------------------------------------------|
E|--------------------------------------------------------|

e|--------------------------------------------------------|
B|--------------------------------------------------------|
G|-------5-5h7p5-5----------------------------------------|
D|-5h7h8-----------8-7------------------------------------|
A|--------------------------------------------------------|
E|--------------------------------------------------------|

e|-1-----3--1-------------------3--------3----3--3-3------|
B|---3----------1-----3--1-----3----3--------3---3-3------|
G|-2-----2--2-----0-----------3--------3----3----3-3------|
D|-----0--------2-----2--2---0-------------------0-0------|
A|------------------3-------------------------------------|
E|--------------------------------------------------------|

thats all i have so far...
ill be working on the solos, but first i have to learn how to play fast enough so that my
strings will melt! if you have any comments email me at weezerx04@hotmail 
thanks
Tap to rate this tab
# A B C D E F G H I J K L M N O P Q R S T U V W X Y Z