Song name
# A B C D E F G H I J K L M N O P Q R S T U V W X Y Z

Stryper - Way tab

 this is my first tab...I hope you like it...enjoy

ARTIST - Stryper
SONG - The Way
ALBUM - to hell with the devil
TUNING-Eb Bb Gb Db Ab Eb


 Intro

E|----------------------------------------------------------------------|
B|----------------------------------------------------------------------|
G|----------------------------------------------88----------------------|
D|----------5----------6----------5----------3--88----------------------|
A|--3--3-3-----3-3-3-3----3-3-3-3----3-3-3-3----66----------------------|
E|----------------------------------------------------------------------|

E|----------------------------------------------------------------------|
B|----------------------------------------------------------------------|
G|----------------------------------------------------------------------|
D|----------5----------6----------5-------------3-----------------------|
A|--3--3-3-----3-3-3-3----3-3-3-3-----------1---------------------------|
E|-----------------------------------1--3-------------------------------|

-------------------------------------------2x--------------------------

Verse

C5 C5 Bb5 Ab5 Ab5 Bb5 B5 C5 C5 Bb5 Ab5 F5 Eb5  2x

PreChorus

G5 G5 Ab5 Ab5 G5 G5 Ab5 Bb5 Bb

Chorus

C5 G5 Ab5 Bb5 B5  2x

Intro
Verse
Pre Chorus
Chorus

Chords that you play in the solo for rythm guitar

F5 Eb5 D5 C5 C5 Bb5 Ab5 Bb5 B5 C5 C5
F5 Eb5 D5 C5 C5 Bb5 Ab5 Ab5 Bb Bb5

Intro
Chorus
Outro which is the intro


thats it....tell me if its good or not
Tap to rate this tab
# A B C D E F G H I J K L M N O P Q R S T U V W X Y Z