Song name
# A B C D E F G H I J K L M N O P Q R S T U V W X Y Z

Stryper - Shining Star tab

Tabbed by: Isaias Garcia (TexasFury)

Tuning: half-step down


Rhythm Guitar
      Intro                                                                            
      W                   W                   E.  S Q    H           W                 
D#||-------------------|-------------------|----------------------|-------------------|
A#||-------------------|-------------------|----------------------|-------------------|
F#||-------------------|-------------------|----------------------|-------------------|
C#||-------------------|-------------------|--2---2---------------|-------------------|
G#||-------------------|-------------------|--2---2---------------|-------------------|
D#||-------------------|-------------------|--0---0---------------|-------------------|


                                                PM    PM    PM        PM            
  E.  S S E.  H           H        Q    Q       E  E  S  E  S  S  S S S  S  S S  S  
-----------------------|---------------------|-------------------------------------|
-----------------------|---------------------|-------------------------------------|
-----------------------|---------------------|-------------------------------------|
--2---2-L-2------------|----------------7----|-------------------------------------|
--2---2-L-2------------|----------------7----|-----7-----5-----5p-4------4p-2------|
--0---0-L-0------------|----------------5----|--0-----0-----0-------5-0-------5p-3-|


  PM    PM    PM         PM         PM    PM    PM        PM            
  E  E  S  E  S  S  S S  S  Q       E  E  S  E  S  S  S S S  S  S S  S  
---------------------------------|-------------------------------------|
---------------------------------|-------------------------------------|
---------------------------------|-------------------------------------|
----------------------------7----|-------------------------------------|
-----7-----5-----5p-4-------7----|-----7-----5-----5p-4------4p-2------|
--0-----0-----0-------5p-3--5----|--0-----0-----0-------5-0-------5p-3-|


                                Verse 1                                                            
  PM    PM    PM                \1/                                                                
  E  E  S  E  S  S E.  S E.     W                   H.            S  S  S  S     W                 
-----------------------------|-------------------|---------------------------|--------------------|
-----------------------------|-------------------|---------------------------|--------------------|
-------------------7---------|-------------------|---------------12-14--x--x-|--12----------------|
-------------------7-----7---|-------------------|---------------12-14--x--x-|--12----------------|
-----7-----5-------5-----7---|-------------------|---------------------------|--------------------|
--0-----0-----0----------5---|--0----------------|--L------------------------|--------------------|


   H         E   S  S  S  E   S    W                   H        E   S  S  S  S S  S  
--------------------------------|-------------------|-------------------------------|
--------------------------------|-------------------|-------------------------------|
---L---------L---x--x-12-14---x-|-------------------|---------------x--x-12-14----x-|
---L---------L---x--x-12-14---x-|-------------------|---------------x--x-12-14----x-|
--------------------------------|-------------------|-------------------------------|
--------------------------------|--0----------------|--L--------L-------------------|


                              pick scrape                                                 
                                                      PM    PM    PM        PM            
   W                    Q     Q          Q    Q       E  E  S  E  S  S  S S S  S  S S  S  
--------------------|------------------------------|-------------------------------------|
--------------------|------------------------------|-------------------------------------|
--12----------------|---L-----x\---------7---------|-------------------------------------|
--12----------------|---L-----x\---------7----7----|-------------------------------------|
--------------------|--------------------5----7----|-----7-----5-----5p-4------4p-2------|
--------------------|-------------------------5----|--0-----0-----0-------5-0-------5p-3-|


  PM    PM    PM         PM         PM    PM    PM        PM              PM    PM    PM            
  E  E  S  E  S  S  S S  S  Q       E  E  S  E  S  S  S S S  S  S S  S    E  E  S  E  S  Q    Q     
---------------------------------|-------------------------------------|---------------------------|
---------------------------------|-------------------------------------|---------------------------|
---------------------------------|-------------------------------------|-----------------7---------|
----------------------------7----|-------------------------------------|-----------------7----7----|
-----7-----5-----5p-4-------7----|-----7-----5-----5p-4------4p-2------|-----7-----5-----5----4----|
--0-----0-----0-------5p-3--5----|--0-----0-----0-------5-0-------5p-3-|--0-----0-----0------------|


  Chorus 1                                                                               
                                                   PM PM                                 
  H        H           H        H           Q.     S  S  H           H        Q    Q     
--------------------|-----------3--------|------------------------|---------------------|
--------------------|-----------3--------|------------------------|---------------------|
--5--------7--------|-----------0--------|---------------7--------|--9--------7---------|
--5--------7--------|--2--------0--------|--7------------7--------|--9--------7----7----|
--3--------5--------|--2-----------------|--7------------5--------|--7--------5----7----|
--------------------|--0--------3--------|--5------5--5-----------|----------------5----|


  PM    PM    PM        PM              PM    PM    PM         PM       
  E  E  S  E  S  S  S S S  S  S S  S    E  E  S  E  S  S  S S  S  Q     
-------------------------------------|---------------------------------|
-------------------------------------|---------------------------------|
-------------------------------------|---------------------------------|
-------------------------------------|----------------------------7----|
-----7-----5-----5p-4------4p-2------|-----7-----5-----5p-4-------7----|
--0-----0-----0-------5-0-------5p-3-|--0-----0-----0-------5p-3--5----|


                                                              Verse 2           
  PM    PM    PM        PM                                    \1/               
  E  E  S  E  S  S  S S S  S  S S  S    Q    Q    H           W                 
-------------------------------------|---------------------|-------------------|
-------------------------------------|---------------------|-------------------|
-------------------------------------|---------------------|-------------------|
-------------------------------------|--2------------------|-------------------|
-----7-----5-----5p-4------4p-2------|--2------------------|-------------------|
--0-----0-----0-------5-0-------5p-3-|--0------------------|--0----------------|


  H.            S  S  S  S     W                    H         E   S  S  S  E   S  
---------------------------|--------------------|--------------------------------|
---------------------------|--------------------|--------------------------------|
---------------12-14--x--x-|--12----------------|---L---------L---x--x-12-14---x-|
---------------12-14--x--x-|--12----------------|---L---------L---x--x-12-14---x-|
---------------------------|--------------------|--------------------------------|
--L------------------------|--------------------|--------------------------------|


                                                                           \1/                   
  W                   H        E   S  S  S  S S  S     W                   H        S E.  S E.   
-------------------|-------------------------------|--------------------|-----------------------|
-------------------|-------------------------------|--------------------|-----------------------|
-------------------|---------------x--x-12-14----x-|--12----------------|--0----------7---------|
-------------------|---------------x--x-12-14----x-|--12----------------|-------------7-----7---|
-------------------|-------------------------------|--------------------|-------------5-----7---|
--0----------------|--L--------L-------------------|--------------------|-------------------5---|


  PM    PM    PM        PM              PM    PM    PM         PM       
  E  E  S  E  S  S  S S S  S  S S  S    E  E  S  E  S  S  S S  S  Q     
-------------------------------------|---------------------------------|
-------------------------------------|---------------------------------|
-------------------------------------|---------------------------------|
-------------------------------------|----------------------------7----|
-----7-----5-----5p-4------4p-2------|-----7-----5-----5p-4-------7----|
--0-----0-----0-------5-0-------5p-3-|--0-----0-----0-------5p-3--5----|


  PM    PM    PM        PM              PM    PM   PM PM            
  E  E  S  E  S  S  S S S  S  S S  S    E  E  S  S S  S  Q    Q     
-------------------------------------|-----------------------------|
-------------------------------------|-----------------------------|
-------------------------------------|-------------------7---------|
-------------------------------------|-------------------7----7----|
-----7-----5-----5p-4------4p-2------|-----7-----5-------5----7----|
--0-----0-----0-------5-0-------5p-3-|--0-----0----0--0-------5----|


  PM    PM    PM        PM              PM    PM    PM         PM       
  E  E  S  E  S  S  S S S  S  S S  S    E  E  S  E  S  S  S S  S  Q     
-------------------------------------|----------------------------3----|
-------------------------------------|----------------------------3----|
-------------------------------------|---------------------------------|
-------------------------------------|---------------------------------|
-----7-----5-----5p-4------4p-2------|-----7-----5-----5p-4------------|
--0-----0-----0-------5-0-------5p-3-|--0-----0-----0-------5p-3-------|


                                                                    Chorus 2           
  PM    PM    PM        PM              PM    PM    PM                                 
  E  E  S  E  S  S  S S S  S  S S  S    E  E  S  E  S  Q    Q       H        H         
-------------------------------------|---------------------------|--------------------|
-------------------------------------|---------------------------|--------------------|
-------------------------------------|-----------------7---------|--5--------7--------|
-------------------------------------|-----------------7----7----|--5--------7--------|
-----7-----5-----5p-4------4p-2------|-----7-----5-----5----4----|--3--------5--------|
--0-----0-----0-------5-0-------5p-3-|--0-----0-----0------------|--------------------|


                              PM PM                                                      
  H        H           Q.     S  S  H           H        Q    Q       H        H         
-----------3--------|------------------------|---------------------|--------------------|
-----------3--------|------------------------|---------------------|--------------------|
--9--------0--------|---------------7--------|--9--------7---------|--5--------7--------|
--9--------0--------|--7------------7--------|--9--------7----7----|--5--------7--------|
--7-----------------|--7------------5--------|--7--------5----4----|--3--------5--------|
-----------3--------|--5------5--5-----------|---------------------|--------------------|


                              PM PM                                                       
  H        H           Q.     S  S  H           H        Q    Q       Q    Q    H         
-----------3--------|------------------------|---------------------|---------------------|
-----------3--------|------------------------|---------------------|---------------------|
--9--------0--------|------------------------|--9--------7---------|---------------------|
--9--------0--------|--7------------9--------|--9--------7----7----|--2------------------|
--7-----------------|--7------------9--------|--7--------5----7----|--2------------------|
-----------3--------|--5------5--5--7--------|----------------5----|--0------------------|


  H        Q       Q        E  S S E  E   H           E  S S E  E   H         
-------------------------|-------------------------|-------------------------|
-------------------------|--5--x-6----7~--L--------|--7--x-8----9~--L--------|
-------------------------|--4--x-5----6~--L--------|--6--x-7----8~--L--------|
----------------7g14\----|--3----4----5~--L--------|--5----6----7~--L--------|
-------------------------|-------------------------|-------------------------|
-------------------------|-------------------------|-------------------------|


  E  S  S E   E    H            E   S  S E   E    H            H.            Q      
----------------------------|------------------------------|-----------------------|
--9--x-10----11~---L--------|--11---x-12----13~---L--------|---L-------------------|
--8--x--9----10~---L--------|--10---x-11----12~---L--------|---L-------------------|
--7-----8-----9~---L--------|---9-----10----11~---L--------|---L-------------------|
----------------------------|------------------------------|-----------------------|
----------------------------|------------------------------|----------------12\----|


  Guitar Solo                                                                    
  PM             PM    PM        PM              PM    PM    PM         PM       
  E           E  S  E  S  S  S S S  S  S S  S    E  E  S  E  S  S  S S  S  Q     
----------------------------------------------|---------------------------------|
----------------------------------------------|---------------------------------|
----------------------------------------------|---------------------------------|
----------------------------------------------|----------------------------7----|
--------------7-----5-----5p-4------4p-2------|-----7-----5-----5p-4-------7----|
--0--------------0-----0-------5-0-------5p-3-|--0-----0-----0-------5p-3--5----|


  PM    PM    PM        PM              PM    PM    PM            
  E  E  S  E  S  S  S S S  S  S S  S    E  E  S  E  S  Q    Q     
-------------------------------------|---------------------------|
-------------------------------------|---------------------------|
-------------------------------------|-----------------7---------|
-------------------------------------|-----------------7----7----|
-----7-----5-----5p-4------4p-2------|-----7-----5-----5----7----|
--0-----0-----0-------5-0-------5p-3-|--0-----0-----0-------5----|


  PM    PM    PM        PM              PM    PM    PM         PM       
  E  E  S  E  S  S  S S S  S  S S  S    E  E  S  E  S  S  S S  S  Q     
-------------------------------------|---------------------------------|
-------------------------------------|---------------------------------|
-------------------------------------|---------------------------------|
-------------------------------------|----------------------------7----|
-----7-----5-----5p-4------4p-2------|-----7-----5-----5p-4-------7----|
--0-----0-----0-------5-0-------5p-3-|--0-----0-----0-------5p-3--5----|


  PM    PM    PM        PM              PM    PM    PM            
  E  E  S  E  S  S  S S S  S  S S  S    E  E  S  E  S  Q    Q     
-------------------------------------|---------------------------|
-------------------------------------|---------------------------|
-------------------------------------|-----------------7---------|
-------------------------------------|-----------------7----7----|
-----7-----5-----5p-4------4p-2------|-----7-----5-----5----7----|
--0-----0-----0-------5-0-------5p-3-|--0-----0-----0-------5----|


  PM    PM    PM        PM              PM    PM    PM         PM       
  E  E  S  E  S  S  S S S  S  S S  S    E  E  S  E  S  S  S S  S  Q     
-------------------------------------|---------------------------------|
-------------------------------------|---------------------------------|
-------------------------------------|---------------------------------|
-------------------------------------|----------------------------7----|
-----7-----5-----5p-4------4p-2------|-----7-----5-----5p-4-------7----|
--0-----0-----0-------5-0-------5p-3-|--0-----0-----0-------5p-3--5----|


  PM    PM    PM        PM                                                                         
  E  E  S  E  S  S  S S S  S  S S  S    S S S S E  S S S S E  Q       E  S S S S E  E  E    Q      
-------------------------------------|-----------------------------|------------------------------|
-------------------------------------|--8-8-8-8----8-8-8-8---------|-----8-8-8-8----8--L\---------|
-------------------------------------|--7-7-7-7----7-7-7-7---------|-----7-7-7-7----7--L\---x\----|
-------------------------------------|-----------------------------|------------------------x\----|
-----7-----5-----5p-4------4p-2------|--7-7-7-7----7-7-7-7---------|-----7-7-7-7----7--L\---------|
--0-----0-----0-------5-0-------5p-3-|-----------------------------|------------------------------|


  Chorus 3                                                                               
                                                   PM PM                                 
  H        H           H        H           Q.     S  S  H           H        Q    Q     
--------------------|-----------3--------|------------------------|---------------------|
--------------------|-----------3--------|------------------------|---------------------|
--5--------7--------|--9--------0--------|---------------7--------|--9--------7---------|
--5--------7--------|--9--------0--------|--7------------7--------|--9--------7----7----|
--3--------5--------|--7-----------------|--7------------5--------|--7--------5----4----|
--------------------|-----------3--------|--5------5--5-----------|---------------------|


                                                   PM PM                                 
  H        H           H        H           Q.     S  S  H           H        Q    Q     
--------------------|-----------3--------|------------------------|---------------------|
--------------------|-----------3--------|------------------------|---------------------|
--5--------7--------|--9--------0--------|------------------------|--9--------7---------|
--5--------7--------|--9--------0--------|--7------------9--------|--9--------7----7----|
--3--------5--------|--7-----------------|--7------------9--------|--7--------5----7----|
--------------------|-----------3--------|--5------5--5--7--------|----------------5----|


  Outro                                                                    
  PM       PM    PM        PM              PM    PM    PM         PM       
  E     E  S  E  S  S  S S S  S  S S  S    E  E  S  E  S  S  S S  S  Q     
----------------------------------------|----------------------------3----|
----------------------------------------|----------------------------3----|
----------------------------------------|---------------------------------|
----------------------------------------|---------------------------------|
--------7-----5-----5p-4------4p-2------|-----7-----5-----5p-4------------|
--0--------0-----0-------5-0-------5p-3-|--0-----0-----0-------5p-3-------|


  PM    PM    PM        PM              PM    PM    PM            
  E  E  S  E  S  S  S S S  S  S S  S    E  E  S  E  S  Q    Q     
-------------------------------------|---------------------------|
-------------------------------------|---------------------------|
-------------------------------------|-----------------7---------|
-------------------------------------|-----------------7----7----|
-----7-----5-----5p-4------4p-2------|-----7-----5-----5----7----|
--0-----0-----0-------5-0-------5p-3-|--0-----0-----0-------5----|


  PM    PM    PM        PM              PM    PM    PM         PM       
  E  E  S  E  S  S  S S S  S  S S  S    E  E  S  E  S  S  S S  S  Q     
-------------------------------------|----------------------------3----|
-------------------------------------|----------------------------3----|
-------------------------------------|---------------------------------|
-------------------------------------|---------------------------------|
-----7-----5-----5p-4------4p-2------|-----7-----5-----5p-4------------|
--0-----0-----0-------5-0-------5p-3-|--0-----0-----0-------5p-3-------|


  PM    PM    PM        PM              PM    PM    PM              
  E  E  S  E  S  S  S S S  S  S S  S    E  E  S  E  S  S E.  S E.   
-------------------------------------|-----------------------------|
-------------------------------------|-----------------------------|
-------------------------------------|-------------------7---------|
-------------------------------------|-------------------7-----7---|
-----7-----5-----5p-4------4p-2------|-----7-----5-------5-----7---|
--0-----0-----0-------5-0-------5p-3-|--0-----0-----0----------5---|


  PM    PM    PM        PM              PM    PM    PM         PM       
  E  E  S  E  S  S  S S S  S  S S  S    E  E  S  E  S  S  S S  S  Q     
-------------------------------------|----------------------------3----|
-------------------------------------|----------------------------3----|
-------------------------------------|---------------------------------|
-------------------------------------|---------------------------------|
-----7-----5-----5p-4------4p-2------|-----7-----5-----5p-4------------|
--0-----0-----0-------5-0-------5p-3-|--0-----0-----0-------5p-3-------|


  PM    PM    PM        PM              PM    PM    PM            
  E  E  S  E  S  S  S S S  S  S S  S    E  E  S  E  S  Q    Q     
-------------------------------------|---------------------------|
-------------------------------------|---------------------------|
-------------------------------------|-----------------7---------|
-------------------------------------|-----------------7----7----|
-----7-----5-----5p-4------4p-2------|-----7-----5-----5----7----|
--0-----0-----0-------5-0-------5p-3-|--0-----0-----0-------5----|


  PM    PM    PM        PM              PM    PM    PM         PM       
  E  E  S  E  S  S  S S S  S  S S  S    E  E  S  E  S  S  S S  S  Q     
-------------------------------------|----------------------------3----|
-------------------------------------|----------------------------3----|
-------------------------------------|---------------------------------|
-------------------------------------|---------------------------------|
-----7-----5-----5p-4------4p-2------|-----7-----5-----5p-4------------|
--0-----0-----0-------5-0-------5p-3-|--0-----0-----0-------5p-3-------|


  PM    PM    PM        PM              PM    PM    PM              
  E  E  S  E  S  S  S S S  S  S S  S    E  E  S  E  S  S E.  S E.   
-------------------------------------|-----------------------------|
-------------------------------------|-----------------------------|
-------------------------------------|-------------------7---------|
-------------------------------------|-------------------7-----7---|
-----7-----5-----5p-4------4p-2------|-----7-----5-------5-----7---|
--0-----0-----0-------5-0-------5p-3-|--0-----0-----0----------5---|


  PM    PM    PM        PM              PM    PM    PM         PM       
  E  E  S  E  S  S  S S S  S  S S  S    E  E  S  E  S  S  S S  S  Q     
-------------------------------------|----------------------------3----|
-------------------------------------|----------------------------3----|
-------------------------------------|---------------------------------|
-------------------------------------|---------------------------------|
-----7-----5-----5p-4------4p-2------|-----7-----5-----5p-4------------|
--0-----0-----0-------5-0-------5p-3-|--0-----0-----0-------5p-3-------|


  PM    PM    PM        PM              PM    PM    PM            
  E  E  S  E  S  S  S S S  S  S S  S    E  E  S  E  S  Q    Q     
-------------------------------------|---------------------------|
-------------------------------------|---------------------------|
-------------------------------------|-----------------7---------|
-------------------------------------|-----------------7----7----|
-----7-----5-----5p-4------4p-2------|-----7-----5-----5----7----|
--0-----0-----0-------5-0-------5p-3-|--0-----0-----0-------5----|


  PM    PM    PM        PM              PM    PM    PM         PM       
  E  E  S  E  S  S  S S S  S  S S  S    E  E  S  E  S  S  S S  S  Q     
-------------------------------------|----------------------------3----|
-------------------------------------|----------------------------3----|
-------------------------------------|---------------------------------|
-------------------------------------|---------------------------------|
-----7-----5-----5p-4------4p-2------|-----7-----5-----5p-4------------|
--0-----0-----0-------5-0-------5p-3-|--0-----0-----0-------5p-3-------|


  PM    PM    PM        PM              PM    PM    PM              
  E  E  S  E  S  S  S S S  S  S S  S    E  E  S  E  S  S E.  S E.   
-------------------------------------|-----------------------------|
-------------------------------------|-----------------------------|
-------------------------------------|-------------------7---------|
-------------------------------------|-------------------7-----7---|
-----7-----5-----5p-4------4p-2------|-----7-----5-------5-----7---|
--0-----0-----0-------5-0-------5p-3-|--0-----0-----0----------5---|


  PM    PM    PM        PM              PM    PM    PM         PM        
  E  E  S  E  S  S  S S S  S  S S  S    E  E  S  E  S  S  S S  S  Q      
-------------------------------------|----------------------------3----||
-------------------------------------|----------------------------3----||
-------------------------------------|---------------------------------||
-------------------------------------|---------------------------------||
-----7-----5-----5p-4------4p-2------|-----7-----5-----5p-4------------||
--0-----0-----0-------5-0-------5p-3-|--0-----0-----0-------5p-3-------||




Guitar - lead left/funk

      Intro                                                                           
      W                   W                   Q     S  S  S  S  S  S  S  S  S  S  E   
D#||-------------------|-------------------|-----------------------------------------|
A#||-------------------|-------------------|-----------------------------------------|
F#||-------------------|-------------------|--------x-12--x--x-14-14-12--x-----------|
C#||-------------------|-------------------|--------x-12--x--x-------------14--x-12--|
G#||-------------------|-------------------|-----------------------------------------|
D#||-------------------|-------------------|-----------------------------------------|


                                                            \1/                                
   E.   S  S  E    S  E   S  S  S  S  S  S    H        E.   S   E   E      H         H         
-------------------------------------------|---------------22---L---L--|---L---------L--------|
-------------------------------------------|---------------------------|----------------------|
-------14b---12~---------------------------|---------------------------|----------------------|
--14--------------14~----12----------------|---------------------------|----------------------|
----------------------------14-13-12-10----|---------------------------|----------------------|
----------------------------------------12-|---------------------------|----------------------|


   \1/                                                                            
   W                    W                   W                   W                 
--22~----------------|-------------------|-------------------|-------------------|
---------------------|-------------------|-------------------|-------------------|
---------------------|-------------------|-------------------|-------------------|
---------------------|-------------------|-------------------|-------------------|
---------------------|-------------------|-------------------|-------------------|
---------------------|-------------------|-------------------|-------------------|


  Verse 1                                                                 
  W                    S  S  S  S S  S S  S H           W                 
-------------------|--15-15-15-15---15---15----------|-------------------|
-------------------|--15-15-15-15---15---15----------|-------------------|
-------------------|---------------------------------|-------------------|
-------------------|---------------------------------|-------------------|
-------------------|---------------------------------|-------------------|
-------------------|---------------------------------|-------------------|


   S  S  S  S S  S S  S H           W                    S  S  S  S S  S S  S H         
--15-15-15-15---15---------------|-------------------|--15-15-15-15--------------------|
--15-15-15-15---14---12----------|-------------------|--15-15-15-15---12---14----------|
---------------------12----------|-------------------|----------------12---12----------|
---------------------------------|-------------------|---------------------------------|
---------------------------------|-------------------|---------------------------------|
---------------------------------|-------------------|---------------------------------|


  m.30                                              Verse 2           
                  |--3--| |--3--|  |--3-|                             
  E    E     S S  S  S  S S  S  S  S S  S Q         W                 
-------------------------------------------------|-------------------|
--3b---3pbr--L-0h-3p-0h-3------------------------|-------------------|
--------------------------2p-0h-2p-0-------------|-------------------|
-------------------------------------2p-0--------|-------------------|
-------------------------------------------------|-------------------|
------------------------------------------2br----|-------------------|


   S  S  S  S S  S S  S H           W                    S  S  S  S S  S S  S H         
--15-15-15-15---15---15----------|-------------------|--15-15-15-15---15---------------|
--15-15-15-15---15---15----------|-------------------|--15-15-15-15---14---12----------|
---------------------------------|-------------------|---------------------12----------|
---------------------------------|-------------------|---------------------------------|
---------------------------------|-------------------|---------------------------------|
---------------------------------|-------------------|---------------------------------|


  W                    S  S  S  S S  S S  S H           W                   W                 
-------------------|--15-15-15-15--------------------|--------------|--------------|
-------------------|--15-15-15-15---12---14----------|--------------|--------------|
-------------------|----------------12---12----------|--------------|--------------|
-------------------|---------------------------------|--------------|--------------|
-------------------|---------------------------------|--------------|--------------|
-------------------|---------------------------------|--------------|--------------|


   m.62 - Guitar Solo                             
                                     |----3----|  
   Q                  H          E   S     S   S  
---------------------15~---------L---------------|
--15---------------------------------------------|
--14b-------------------------------14pbr--Lp-12-|
-------------------------------------------------|
-------------------------------------------------|
-------------------------------------------------|


                                                               \1/                    
            |----3----|                                                               
   Q.       S     S   S  S    S  S  S   S  S   E       Q.      E   E   E     E   E    
--15-----------------------------------------------|---------------------------------|
--15-----------------------------------------------|------------------15b~---L---L\--|
--14b------14pbr--Lp-12-16br--L-12-14b--L-(0)------|---------------------------------|
---------------------------------------------------|---------------------------------|
----------------------------------------------12b--|---L------12---L-----------------|
---------------------------------------------------|---------------------------------|


   |---3--|  |---3--|  |---3--|   |---3--|                                                        
   S   S  S  S  S   S  S   S  S   S   S  S  Q      Q        W                   W                 
--15p-12-------------------------------------------------|-------------------|-------------------|
---------15-12--------15p-12-----------------------------|-------------------|-------------------|
---------------15p-12--------15p-14p-12----14b----12\----|-------------------|-------------------|
----------------------------------------14---------------|-------------------|-------------------|
---------------------------------------------------------|-------------------|-------------------|
---------------------------------------------------------|-------------------|-------------------|


  W                   W                    E    S  S  Q     H         
-------------------|-------------------|--17b--15--------------------|
-------------------|-------------------|----------17-20b-------------|
-------------------|-------------------|-----------------------------|
-------------------|-------------------|-----------------------------|
-------------------|-------------------|-----------------------------|
-------------------|-------------------|-----------------------------|


   E.      S   E   E    E   E   Q        S  E   S  E   S  S  S  S  E   E    S  S   
-------------------------------------|--------------------------------------------|
--15pbr---15b--L--17b---L---L\-------|-------------------------12-15--15b--12-15b-|
-------------------------------------|----------------12-14--L--------------------|
-------------------------------------|---------12-14------------------------------|
-------------------------------------|--12-14-------------------------------------|
-------------------------------------|--------------------------------------------|


   E.     S    E   E     E.     S    E   E        E.     S    E   E     Q       Q      
----------------------------------------------|---------------------------------------|
--15b~---15b~--L--15b~--15b~---15b~--L--15b~--|--15b~---15b~--L--15b~--15b~-----------|
----------------------------------------------|---------------------------------x\----|
----------------------------------------------|---------------------------------x\----|
----------------------------------------------|---------------------------------------|
----------------------------------------------|---------------------------------------|



Guitar - lead right

  m.65 - Guitar Solo                                                     
                                         PM                  PM PM PM    
  W                      S  S  S  S   S  S  S  S  E    S  S  S  S  S  S  
D#||---------------|--------------------------------------------------|
A#||---------------|--12-12----12~--L---------------------------------|
F#||---------------|--12-12----12~--L----12-14-14b--12----12----------|
C#||---------------|--------14--------14---------------14----14-14-12-|
G#||---------------|--------------------------------------------------|
D#||---------------|--------------------------------------------------|


   PM PM                                                                                 
   S  S  S   S  S  S  E    S  S  S  S  Q        E   E    S  E    S  E    S  S  E    E    
---------------------------------------------|----------19------19----------------------|
---------------------------------------------|-----22b-----22b-----22b--20-22-----------|
--------------------------------------12~----|--------------------------------21~---L\--|
-----12-------------------12----12-14--------|------------------------------------------|
--14----14s-13-12-10-12b-----14--------------|------------------------------------------|
---------------------------------------------|--0---------------------------------------|


                                                    PM                                            
  S  E  S  S S S S H            H         E      S  S  Q        H         E      S  S    E   E    
-----------------0-----------|-------------------------------|-----------22pbr--19-22b~--L---L\--|
--3p-0--3p-0---3---7b--------|-------------------------------|-----------------------------------|
-------------4---------------|-----------14pbr--12----14b----|-----------------------------------|
-----------------------------|---------------------14--------|-----------------------------------|
-----------------------------|-------------------------------|-----------------------------------|
-----------------------------|-------------------------------|-----------------------------------|


   S  E   S  E   S  S  S  S  E   E    S  S      E.     S    E   E     E.     S    E   E     
-------------------------19-22--22b--19-22b-|--22b~---22b~--L--22b~--22b~---22b~--L--22b~--|
----------------20-22--L--------------------|----------------------------------------------|
---------19-21------------------------------|----------------------------------------------|
--19-21-------------------------------------|----------------------------------------------|
--------------------------------------------|----------------------------------------------|
--------------------------------------------|----------------------------------------------|


                                          Chorus 3                                                  
   E.     S    E   E     Q       Q        W                   W                   W                 
--22b~---22b~--L--22b~--22b~-----------|-------------------|-------------------|-------------------|
---------------------------------------|-------------------|-------------------|-------------------|
---------------------------------x\----|-------------------|-------------------|-------------------|
---------------------------------x\----|-------------------|-------------------|-------------------|
---------------------------------------|-------------------|-------------------|-------------------|
---------------------------------------|-------------------|-------------------|-------------------|


  m.88 - Outro                                                                                   
  W                    E.    S S  E   S S  E   S  Q         E.    S S  E   S S  S   S  S   Q     
-------------------|------------------------------------|---------------------------------------|
-------------------|--14b---14---12--14---12--14--------|--14b---14---12--14---12h-14-----------|
-------------------|--14b---14---12--14---12--14--------|--14b---14---12--14---12h-14-----------|
-------------------|-----------------------------14~----|-----------------------------14~--L----|
-------------------|------------------------------------|---------------------------------------|
-------------------|------------------------------------|---------------------------------------|


   Q     Q    H           W                 
-----------------------|-------------------|
-----------------------|-------------------|
-----------------------|-------------------|
-----------------------|-------------------|
-----------------------|-------------------|
--12\------------------|-------------------|


                                                    PH                                          
   E.     S     E   E      S  E      S  E      S    S       Q     S  S  S   S  Q      E    E    
------------------------------------15--------15--------|-----------15-------------------------|
--18b~---18pb~--L--18pb~---L-18pb~-----18pb~-----<>18b~-|---L-----L----17p-15-17~----17~---L\--|
--------------------------------------------------------|--------------------------------------|
--------------------------------------------------------|--------------------------------------|
--------------------------------------------------------|--------------------------------------|
--------------------------------------------------------|--------------------------------------|


                                                    SH              PH                  
  W                   W                    S   S    E   E   S  S    Q      S  S  S   S  
-------------------|-------------------|-----------------------------------------------|
-------------------|-------------------|-----------------------------------------------|
-------------------|-------------------|---------<>12b---------------------------------|
-------------------|-------------------|--12h-14-----------12----<>12b----12----12h-14-|
-------------------|-------------------|----------------------14-------------14--------|
-------------------|-------------------|-----------------------------------------------|


                            /1\                                                 
   E    E   S   S   S  S    Q     Q       W                   W                 
---------------------------------------|-------------------|-------------------|
-------12------------------------------|-------------------|-------------------|
--14b------14b--Lp-12----<>12-----L----|-------------------|-------------------|
----------------------14---------------|-------------------|-------------------|
---------------------------------------|-------------------|-------------------|
---------------------------------------|-------------------|-------------------|


            \1/           SH                                                              
  H         H             H         H            Q     Q    H           W                 
---------------------|------------------------|----------------------|-------------------|
---------------------|------------------------|----------------------|-------------------|
---------------------|------------------------|----------------------|-------------------|
---------------------|------------------------|----------------------|-------------------|
---------------------|--<>9b--------7~--------|--x-------------------|-------------------|
--9b--------9--------|------------------------|--7\------------------|-------------------|


   S  S  S  S  S  S  S  S  S  S  S  S  S    S  E      E.    S   S S  E    Q      E   E    
-----------12--x--x-12--x--x-12--x--x-------------|----------------------15b-----L---L\--|
--12--x--x-12--x--x-12--x--x-12--x--x-14br--L-12--|--15b---15b--L---15b------------------|
--------------------------------------14br--L-----|--------------------------------------|
--------------------------------------------------|--------------------------------------|
--------------------------------------------------|--------------------------------------|
--------------------------------------------------|--------------------------------------|


Duration Legend
---------------
W - whole
H - half
Q - quarter
E - 8th
S - 16th
T - 32nd
X - 64th
. - note dotted
|-n-|  - n-tuplets


Tablature Legend
----------------
L - tied note
x - dead note
g - grace note
(n) - ghost note
> - accentuded note
NH - natural harmonic
AH - artificial harmonic
TH - tapped harmonic
SH - semi harmonic
PH - pitch harmonic
h - hammer on
p - pull off
b - bend
br - bendRelease
pb - preBend
pbr - preBendRelease
brb - bendReleaseBend
\n/ - tremolo bar dip
\n - tremolo bar dive
-/n - tremolo bar Release up
/n\ - tremolo bar inverted dip
/n - tremolo bar return
-\n - tremolo bar Release down
S - shift slide
s - legato slide
/ -  slide into from below or out of upwards
\ -  slide into from above or out of downwards
~ - vibrato
W - wide vibrato
tr - trill
TP - tremolo picking
T - tapping
S - slap
P - pop
< - fade in
^ - brush up
v - brush down
Tap to rate this tab
# A B C D E F G H I J K L M N O P Q R S T U V W X Y Z