Song name
# A B C D E F G H I J K L M N O P Q R S T U V W X Y Z

Student Rick - Hideaway tab

e---12---12---12---12---12---12---12---12-------------------------|
B-----------------------------------------------------------------|
G-----14---14---14---14---13---13---13---13----9--13-14-13--------|
D--------------------------------------------0--------------------|
A-----------------------------------------------------------------|
E-----------------------------------------------------------------|

(cont.)
e-------------------------------|I
B-------------------------------|I
G----9--13-14-13----------------|I
D--0------------------I---------|        X2
A-------------------------------|I
E-------------------------------|I
Tap to rate this tab
# A B C D E F G H I J K L M N O P Q R S T U V W X Y Z