Guitaretab - guitar tabs
Song name
# A B C D E F G H I J K L M N O P Q R S T U V W X Y Z

Stutterfly - Frail tab

Great song ...hope you like this tab


Guitar 1  0:00-0:30

E|--4-3--4-3--1h3p1--|
B|-------------------| 
G|-0-0--0-0--0-------|   (x5)
D|-------------------| 
A|-------------------| 
D|-------------------|

E|--4-3--4-3--1/3----|
B|-------------------|
G|-0-0--0-0--0-------|
D|-------------------|
A|-------------------|
D|-------------------|

Guitar 2  0:10-0:30

E|-----------------------------------------|
B|-----------------------------------------|
G|-12-16-17-16--12-16-17-19-17-16h17p16/12-|
D|-----------------------------------------|
A|-----------------------------------------|
D|-----------------------------------------|

E|-----------------------------------------|
B|-----------------------------------------|
G|-12-16-17-16--12-16-17-19-17/21----------|
D|-----------------------------------------|
A|-----------------------------------------|
D|-----------------------------------------|

E|-----------------------------------------|
B|-----------------------------------------|
G|-12-16-17-16--12-16-17-19-17-16h17p16/12-|
D|-----------------------------------------|
A|-----------------------------------------|
D|-----------------------------------------|

E|-----------------------------------------|
B|-----------------------------------------|
G|-12-16-17-16--12-16-17-19-17/21----------|
D|-----------------------------------------|
A|-----------------------------------------|
D|-----------------------------------------|

A third guitar does some harmonics 0:10-0:30

NH------------------>
 
E|------------------|
B|--------12-----7--|
G|--------12------7-|
D|-----12------12---|
A|------------------|
D|------------------|

Guitar 1+2 0:30-0:40

E|-3~~~~4~~~~3~~~~~-|
B|------------------|
G|-0~~~~-----0~~~~~~|
D|------------------|
A|------------------|
D|------------------|

Guitar 1+2 0:40-1:00

E|------------------|
B|------------------|
G|------------------|
D|-555-0h111-0-1-00-|       (x3)
A|-555-0h111-0-1-00-|
D|-555-0h111-0-1-00-|

E|-----------------|
B|-----------------|
G|-----------------|
D|-555-0h111-3*ph--|
A|-555-0h111-------|
D|-555-0h111-------|

E|------------------|
B|------------------|
G|------------------|
D|-555-0h111-0-1-00-|       (x3)
A|-555-0h111-0-1-00-|
D|-555-0h111-0-1-00-|

E|-----------------|
B|-----------------|
G|-----------------|
D|-555-0h111-00----|
A|-555-0h111-00----|
D|-555-0h111-00----|

1:00-1:10

Guitar 1 (Guitar 2 comes in at 2nd time)

E|--------------------|
B|--------------------|
G|--------------------| (x2)
D|--------------------|
A|--------------------|
D|6-555-55--6-5--6-5--|

1:10-1:35

E|--------------|
B|--------------|
G|--------------| (x9)
D|--------------|
A|6-5555555-6-8-|
D|6-5555555-6-8-|

E|-----------|
B|-----------|
G|-xxxx-xxxx-|
D|-xxxx-xxxx-|
A|-xxxx-xxxx-|
D|-xxxx-xxxx-|

1:35-1:55

Guitar 1+2

E|------------------|     
B|------------------|
G|------------------|
D|-555-0h111-0-1-00-|       
A|-555-0h111-0-1-00-|
D|-555-0h111-0-1-00-|

Guitar 1
[ Tab from: http://www.guitaretab.com/s/stutterfly/132352.html ]
E|------------------|
B|------------------|
G|------------------|
D|-555-0h111-0-1-00-|       
A|-555-0h111-0-1-00-|
D|-555-0h111-0-1-00-|

Guitar 2

E|-----------------|
B|-----------------|
G|-----------------|
D|-555-0h111-3*ph--|
A|-555-0h111-------|
D|-555-0h111-------|

1:55-2:00

E|----------------|
B|----------------|
G|----------------|
D|----3*ph--------|         (x3)
A|----------------|
D|----------------|

2:00-2:10

Guitar 1 (2 comes in at 2nd time)

E|--------------|
B|--------------|
G|--------------| 
D|--------------| (x4)
A|6-5555555-6-8-|
D|6-5555555-6-8-|
PM. ....... . . 

2:10-2:30

E|--------------|
B|--------------|
G|--------------| 
D|--------------| (x5)
A|6-5555555-6-8-|
D|6-5555555-6-8-|


E|-----------|
B|-----------|
G|-xxxx-xxxx-|
D|-xxxx-xxxx-|
A|-xxxx-xxxx-|
D|-xxxx-xxxx-|

2:30-2:50

Guitar 1+2

E|------------------|     
B|------------------|
G|------------------|
D|-555-0h111-0-1-00-|       
A|-555-0h111-0-1-00-|
D|-555-0h111-0-1-00-|

Guitar 1

E|------------------|
B|------------------|
G|------------------|
D|-555-0h111-0-1-00-|       
A|-555-0h111-0-1-00-|
D|-555-0h111-0-1-00-|

Guitar 2

E|-----------------|
B|-----------------|
G|-----------------|
D|-555-0h111-3*ph--|
A|-555-0h111-------|
D|-555-0h111-------|

2:55-3:20 

E|-------------------|
B|-------------------|
G|-------------------|
D|-666-555-333-11-00-| (x9)
A|-666-555-333-11-00-|
D|-666-555-333-11-00-|

3:35-3:55

Guitar 1+2

E|------------------|     
B|------------------|
G|------------------|
D|-555-0h111-0-1-00-|       
A|-555-0h111-0-1-00-|
D|-555-0h111-0-1-00-|

Guitar 1

E|------------------|
B|------------------|
G|------------------|
D|-555-0h111-0-1-00-|       
A|-555-0h111-0-1-00-|
D|-555-0h111-0-1-00-|

Guitar 2

E|-----------------|
B|-----------------|
G|-----------------|
D|-555-0h111-3*ph--|
A|-555-0h111-------|
D|-555-0h111-------|

4:00-4:10

Guitar 1

E|------------------|
B|------------------|
G|------------------|  
D|-555-0h111-0-1-00-|       
A|-555-0h111-0-1-00-|
D|-555-0h111-0-1-00-|

Guitar 2

E|-7h8p7-5-4-2-4-5--7h8p7-5-4-2/4b-|
B|---------------------------------|
G|---------------------------------|
D|---------------------------------|
A|---------------------------------|
D|---------------------------------|

E|-7h8p7-5-4-2-4-5--7h8p7-5-4------|
B|---------------------------------|
G|---------------------------(0)---|
D|------------------------------3*-|
A|---------------------------------|
D|---------------------------------|

4:10-4:20

Guitar 1

E|-----------------------|
B|-----------------------|
G|-----------------------|
D|-555-0h111-000-111-000-|
A|-555-0h111-000-111-000-|
D|-555-0h111-000-111-000-|

Guitar 2

E|-----------------------|
B|-----------------------|
G|-----------------------|
D|-----3*---3*-----------|
A|0-0-0--000-------------|
D|0-0-0--000-------------|


E|-----------------------|
B|-----------------------|
G|-----------------------|
D|-----3*---3*---3*------| (x2)
A|0-0-0--000--000--------|
D|0-0-0--000--000--------|

E|-----------------------|
B|-----------------------|
G|---------------3*------|
D|-----3*---3*-----------|
A|0-0-0--000--000--------|
D|0-0-0--000--000--------|


Related for Frail tab