Song name
# A B C D E F G H I J K L M N O P Q R S T U V W X Y Z

Stutterfly - Gun In Hand tab

this is an awesome song and this is a way of playing it i dont knw if this is rite but 
works 4 my band both guitars on distortion guitar 1 shud b able to switch into a 
type effect also there is a piano/keyboard and tamberine in the cd version lol so yea


intro....
guitar 2
e|-----------------------------------|
b|-----------------------------------|
g|-----------------------------------|
D|------------------00-000-000-0-0-0-|
A|---555666555------00-000-000-0-0-0-|
D|555---------------00-000-000-0-0-0-|


guitar 2
e|------------------------------------|
b|------------------------------------|
g|------------------------------------|
D|-4446-66767976--9760-9760-9760-06976|
A|------------------------------------|
D|------------------------------------|
guitar 1
e|------------------------------------|
b|------------------------------------|
g|------------------------------------|
D|444-666-777-666---------------------|
A|444-444-444-444---------------------|
D|444-444-444-444---------------------|
verse 1...
both guitars
e|------------------------------------|
B|------------------------------------|
G|------------------------------------|
D|-4444-4444-0000-0000----------------|
A|-4444-4444-0000-0000----------------|
D|-4444-4444-0000-0000----------------|
both repeat this twice then guitar 2 goes to next riff guitar 1 keep going with verse 
chorus

guitar 2
e|--------------------------------|            |--------------|
b|---------------------------5----|            |--------------|
g|---5-----5-----5---5----5---5---|            |--5~----5~----|
D|-----5-5---5-5--5----55--55-----|  Repeat    |-----5~----5~-|
A|--------------------------------|            |--------------|
D|--------------------------------|            |--------------|

chorus....
both guitars
e|-----------------------------|
b|-----------------------------|
g|-----------------------------|
D|-44667766--00--000-000--0-0-0|
A|-44444444--00--000-000--0-0-0|
D|-44444444--00--000-000--0-0-0|

second verse...
guitar 1 duz the 4s and the 0s 4 this and guitar 2 duz the 5s
e|-------------------------------------|
B|-------^--------^-------^---------^--|
G|------^5^------^5^------5^^-------5^^|
D|-4444-5-5-4444-5-5-0000--55--0000--55|repeat
A|-4444-----4444-----0000------0000----|
D|-4444-----4444-----0000------0000----|


e|--------------------------------|            |--------------|
b|---------------------------5----|            |--------------|
g|---5-----5-----5---5----5---5---|            |--5~----5~----|
D|-----5-5---5-5--5----55--55-----|  Repeat    |-----5~----5~-|
A|--------------------------------|            |--------------|
D|--------------------------------|            |--------------|

chorus
e|-----------------------------|
b|-----------------------------|
g|-----------------------------|
D|-44667766--00--000-000--0-0-0|
A|-44444444--00--000-000--0-0-0|
D|-44444444--00--000-000--0-0-0|

pre interlude
e|--------------------------------------------|
b|--------------------------------------------|
g|--------------------------------------------|
D|-44-66-77-66--00--000-000--0-0-0-4~---------|
A|-44-44-44-44--00--000-000--0-0-0-4~---------|
D|-44-44-44-44--00--000-000--0-0-0-4~---------|

this is the little interlude thng dnt knw if its rite bt o well
e|----------------------------|
B|----------------------------|
G|----------------------------|
D|------776--------776--------|
A|---------7----------7-------|
D|-44444------44444-----------|

e|----------------------------|
B|----------------------------|
G|----------------------------|
D|------776--------776--------|
A|---------7----------7-------|
D|-00000------00000-----------|

from here down its both guitars
e|--------------------|
B|--------------------|
G|--------------------|
D|-4444-4444-0000-0000|
A|-4444-4444-0000-0000|repeat
E|-4444-4444-0000-0000|

e|--------------------------------|
b|--------------------------------|
g|--------------------------------|
D|-44-66-77-66--00--000-000--0-0-0|
A|-44-44-44-44--00--000-000--0-0-0|repeat lots till it gets to next part
D|-44-44-44-44--00--000-000--0-0-0|

e|--------------------------------------------|
b|--------------------------------------------|
g|--------------------------------------------|
D|4-4-4-44-44-4-4-4-44-44-9760 9760 9760 06976|
A|4-4-4-44-44-4-4-4-44-44---------------------|
D|4-4-4-44-44-4-4-4-44-44---------------------|


e|-------------------------------------------------|
b|-------------------------------------------------|
g|-------------------------------------------------|
D|4-4-4-44-44-4-4-4-44-44-0-0-0-00-00-0-0-0-00-00 0|
A|4-4-4-44-44-4-4-4-44-44-0-0-0-00-00-0-0-0-00-00 0|
D|4-4-4-44-44-4-4-4-44-44-0-0-0-00-00-0-0-0-00-00 0|

e|--------------------------------------------|
b|--------------------------------------------|
g|--------------------------------------------|
D|4-4-4-44-44-4-4-4-44-44-9760 9760 9760 06976|
A|4-4-4-44-44-4-4-4-44-44---------------------|
D|4-4-4-44-44-4-4-4-44-44---------------------|

e|--------------------------------------------------|
b|--------------------------------------------------|
g|--------------------------------------------------|
D|4-4-4-44-44-4-4-4-44-44-0-0-0-00-00-0-0-0-00-00 0~|
A|4-4-4-44-44-4-4-4-44-44-0-0-0-00-00-0-0-0-00-00 0~|to finish let that ring
D|4-4-4-44-44-4-4-4-44-44-0-0-0-00-00-0-0-0-00-00 0~|
Tap to rate this tab
 
# A B C D E F G H I J K L M N O P Q R S T U V W X Y Z