Guitaretab - guitar tabs
Song name
# A B C D E F G H I J K L M N O P Q R S T U V W X Y Z

Stutterfly - Flames Adorn The Silence tab

Band:   Stutterfly 
Song:   Flames Adorn The Silence 
Album:  Broken in pieces..(..too small to repair) 

Transcribed by: BraD Unterhofer 
Tuning: Drop-D 
E-mail me with questions, comments,corrections hate mail @   
Destroyer04@hotmail.com 

>X< Flames Adorn the Silence >X< 

e|-------------------------------------------------| 
b|-------------------------------------------------| 
g|-------------------------------------------------| 
d|-0 ~-----0 ~-----0-0-0----0 ~-----0 ~-----0-0-0--| 
a|-0 ~-----0 ~-----0-0-0----0 ~-----0 ~-----0-0-0--| 
d|-0 ~-----0 ~-----0-0-0----0 ~-----0 ~-----0-0-0--| 


e|-------------------------------------| 
b|-------------------------------------| 
g|-10--10--9--9--10--10--9--9--10--9---| 
d|--0---0--0--0---0---0--0--0---0--0---| x8 
a|-------------------------------------| 
d|-------------------------------------| 


e|--------------------------------------------------------------------| 
b|--------------------------------------------------------------------| 
g|----------------------------------------------10-10-10-10-10-10--0--| 
d|-0-0---0-0-0-0-0---0-0-0-0-0---0-0-0---0-0-0--10-10-10-10-10-10--0--| x4 
a|-0-0---0-0-0-0-0---0-0-0-0-0---0-0-0---0-0-0---8--8--8--8--8--8--8--| 
d|-0-0---0-0-0-0-0---0-0-0-0-0---0-0-0---0-0-0---8--8--8--8--8--8--8--| 


e|-----------------------------------------------------------------| 
b|-----------------------------------------------------------------| 
g|----------------------------------------10-10-10-10-10-10-10--8--| 
d|---0-------0-0---0-0------0-0-----------10-10-10-10-10-10-10--8--| x4 
a|---0-------0-0---0-0------0-0------------8--8--8--8--8--8--8--8--| 
d|---0-------0-0---0-0------0-0------------8--8--8--8--8--8--8--8--| 


e|--------------------------| 
b|--------------------------| 
g|---------------10-9-------| 
d|-8 ~------10 ~------12 ~--| x1 
a|-8 ~------10 ~------12 ~--| 
d|-8 ~------10 ~------12 ~--| 
  free     your      head 

e|------------------------------------------------------| 
b|------------------------------------------------------|         
g|------------------------------------------------------|--------+ 
d|--12----12-12---12-12-12---15--14-10--------10 10 10--|        | 
a|--12----12-12---12-12-12---15--14-10--------10 10 10--|        |  
d|--12----12-12---12-12-12---15--14-10--------10 10 10--|        | 
                                                                 |---x2 
                                                                 | 
e|------------------------------------------------|              |     
b|------------------------------------------------|              | 
g|------------------------------------------------|              | 
d|--12----12-12---12-12-12---17--16-14-----0-0-0--|--------------+ 
a|--12----12-12---12-12-12---17--16-14-----0-0-0--| 
d|--12----12-12---12-12-12---17--16-14-----0-0-0--| 
                                          ..p.m.. 


e|-------------------------------------| 
b|-------------------------------------| 
g|-10--10--9--9--10--10--9--9--10--9---| 
d|--0---0--0--0---0---0--0--0---0--0---| x8 
a|-------------------------------------| 
d|-------------------------------------| 



e|-----------------------------------------------------------------| 
b|-----------------------------------------------------------------| 
g|----------------------------------------10-10-10-10-10-10-10--8--| 
d|---0-------0-0---0-0------0-0-----------10-10-10-10-10-10-10--8--| x4 
a|---0-------0-0---0-0------0-0------------8--8--8--8--8--8--8--8--| 
d|---0-------0-0---0-0------0-0------------8--8--8--8--8--8--8--8--| 


e|-------------------------------------| 
b|-------------------------------------| 
g|-10--10--9--9--10--10--9--9--10--9---| 
d|--0---0--0--0---0---0--0--0---0--0---| x8 
a|-------------------------------------| 
d|-------------------------------------| 


e|-----| 
b|-----| 
g|-----| 
d|--0--| let ring 
a|--0--| 
d|--0--| 
take a look....at yourself....at what your heart....upon the shelf... 


                      ---*switch to clean*--- 


it still bleeds..these words will heal..this pain inside...is all thats real. 
e|--------------------------------------------------------| 
b|--------------------------------------------------------| 
g|-10-10-10---9--9--9--10-10-10---9--9--9---10--10--9--9--|------+ 
d|--8--8--8---8--8--8---8--8--8---8--8--8----8---8--8--8--|      | 
a|--8--8--8---8--8--8---8--8--8---8--8--8----8---8--8--8--|      | 
d|--8--8--8---8--8--8---8--8--8---8--8--8----8---8--8--8--|      | 
    fall........as fire....                                      |--- x8 
                                                                 | 
e|--------------------------------------------------------|      | 
b|--------------------------------------------------------|      | 
g|-10-10-10---9--9--9--10-10-10---9--9--9---10--10--9--9--|------+ 
d|--0--0--0---0--0--0---0--0--0---0--0--0----0---0--0--0--| 
a|--0--0--0---0--0--0---0--0--0---0--0--0----0---0--0--0--| 
d|--0--0--0---0--0--0---0--0--0---0--0--0----0---0--0--0--| 


             ---*switch to distortion*--- 


e|--------------------------------------------------------| 
b|--------------------------------------------------------| 
g|-10-10-10---9--9--9--10-10-10---9--9--9---10--10--9--9--|------+ 
d|--8--8--8---8--8--8---8--8--8---8--8--8----8---8--8--8--|      | 
a|--8--8--8---8--8--8---8--8--8---8--8--8----8---8--8--8--|      | 
d|--8--8--8---8--8--8---8--8--8---8--8--8----8---8--8--8--|      | 
  FAAAAAAAALLLLLLL!!!!!!!!  as fire...                           |--- x4 
                                                                 | 
e|--------------------------------------------------------|      | 
b|--------------------------------------------------------|      | 
g|-10-10-10---9--9--9--10-10-10---9--9--9---10--10--9--9--|------+ 
d|--0--0--0---0--0--0---0--0--0---0--0--0----0---0--0--0--| 
a|--0--0--0---0--0--0---0--0--0---0--0--0----0---0--0--0--| 
d|--0--0--0---0--0--0---0--0--0---0--0--0----0---0--0--0--| 


e|--------------------| 
b|--------------------| 
g|--------------------| 
d|---8--7--8--10--7---| x16 
a|---8--7--8--10--7---| 
d|---8--7--8--10--7---| 
....fall as fire from.... 
...all the skies above... 



e|--------------------------| 
b|--------------------------| 
g|--------------------------| 
d|-8 ~------10 ~------12 ~--|  
a|-8 ~------10 ~------12 ~--| 
d|-8 ~------10 ~------12 ~--| 
  FALL      AS     FIIIIIIRE!!!!!!!!!!! 

*EnD* 






>X< B R A D >X< 

      `&'                  
       #             
       #             
    |\ #             
     \ #/)           
     / = \  
    ( === )                   
     `---'                      

corrections welcome if your not gonna be a dick about it 
[ Tab from: http://www.guitaretab.com/s/stutterfly/24111.html ]
Related for Flames Adorn The Silence tab