Song name
# A B C D E F G H I J K L M N O P Q R S T U V W X Y Z

Subhumans - Wake Up Screaming tab

Wake Up Screaming by Subhumans

e:----------------|----------------|----------------|----------------|
b:------------6---|------------6---|------------4---|------------4---|
g:----9-----------|----9-----------|----7-----------|----7-----------|
d:--------8-------|--------8-------|--------6-------|--------6-------|
a:7---------------|7---------------|5---------------|5---------------|
e:----------------|----------------|----------------|----------------|
 
I donīt think I am what I was before
I never watched anyone die before
I wish Iīd never left home
I wish Iīd left it alone
Temptation is adisease
You can never do as you please
Your body takes over and your mind donīt care
Never think twice what might happen out there

e:------------|------------|------------|------------|
b:----8---7---|----8---7---|----8---7---|----8---7---|
g:7-9---9---9-|7-9---9---9-|7-9---9---9-|7-9---9---9-|
d:------------|------------|------------|------------|
a:------------|------------|------------|------------|
e:------------|------------|------------|------------|

e:------------|------------|------------|------------|
b:----6---5---|----6---5---|----6---5---|----6---5---|
g:5-7---7---7-|5-7---7---7-|5-7---7---7-|5-7---7---7-|
d:------------|------------|------------|------------|
a:------------|------------|------------|------------|
e:------------|------------|------------|------------|

e:------------|------------|------------|------------|
b:----8---7---|----8---7---|----8---7---|----8---7---|
g:7-9---9---9-|7-9---9---9-|7-9---9---9-|7-9---9---9-|
d:------------|------------|------------|------------|
a:------------|------------|------------|------------|
e:------------|------------|------------|------------|

e:---------------|---------------|---------------|---------------|
b:---------------|---------------|---------------|---------------|
g:9-------7--10--|9-------7--10--|7-------5---8--|7-------5---8--|
d:9-------7--10--|9-------7--10--|7-------5---8--|7-------5---8--|
a:7-------5---8--|7-------5---8--|5-------3---6--|5-------3---6--|
e:---------------|---------------|---------------|---------------|

Go straight in for the ultimate sin
And nobody else ever seems to care

e:--------------------------------|--------------------------------|
b:--------------------------------|--------------------------------|
g:9---9-9-9-9-9-9-7---7-710--1010-|9---9-9-9-9-9-9-7---7-710--1010-|
d:9---9-9-9-9-9-9-7---7-710--1010-|9---9-9-9-9-9-9-7---7-710--1010-|
a:7---7-7-7-7-7-7-5---5-5-8---8-8-|7---7-7-7-7-7-7-5---5-5-8---8-8-|
e:--------------------------------|--------------------------------|


e:--------------------------------|--------------------------------|
b:--------------------------------|--------------------------------|
g:7---7-7-7-7-7-7-5---5-5-8---8-8-|7---7-7-7-7-7-7-5---5-5-8---8-8-|
d:7---7-7-7-7-7-7-5---5-5-8---8-8-|7---7-7-7-7-7-7-5---5-5-8---8-8-|
a:5---5-5-5-5-5-5-3---3-3-6---6-6-|5---5-5-5-5-5-5-3---3-3-6---6-6-|
e:--------------------------------|--------------------------------|

So I took what I thought was mine
And waited for a very long time
And I thought I knew what happened to you
Cos you told me exactly what to do
So I did it right stay up all night
Felt like killing myself for you

I donīt think I think like I did before
I never watched anyone die before
I felt like I died as well
The look the words the smell
The way you looked at me
As if Iīd never be free
I remember the words liek a favourite song
Cos I forget the way things went wrong
Faked a picture of perfect health
Then I realised I was killing myself

The solo is played on the high e-string in 12th and 10th fret

E (-799---) PM
I donīt think I am what I was before
I never watched anyone die before
D (-577---) PM
I dream in slow motion and 
I WAKE UP SCREAMING 

e:--------------------------------|--------------------------------|
b:--------------------------------|--------------------------------|
g:9---9-9-9-9-9-9-7---7-710--1010-|9---9-9-9-9-9-9-7---7-710--1010-|
d:9---9-9-9-9-9-9-7---7-710--1010-|9---9-9-9-9-9-9-7---7-710--1010-|
a:7---7-7-7-7-7-7-5---5-5-8---8-8-|7---7-7-7-7-7-7-5---5-5-8---8-8-|
e:--------------------------------|--------------------------------|


e:--------------------------------|--------------------------------|
b:--------------------------------|--------------------------------|
g:7---7-7-7-7-7-7-5---5-5-8---8-8-|7---7-7-7-7-7-7-5---5-5-8---8-8-|
d:7---7-7-7-7-7-7-5---5-5-8---8-8-|7---7-7-7-7-7-7-5---5-5-8---8-8-|
a:5---5-5-5-5-5-5-3---3-3-6---6-6-|5---5-5-5-5-5-5-3---3-3-6---6-6-|
e:--------------------------------|--------------------------------|

e:--------------------|--------------------|
b:--------------------|--------------------|
g:9---9---7-7-7101010-|9---9---7-7-7101010-|
d:9---9---7-7-7101010-|9---9---7-7-7101010-|
a:7---7---5-5-5-8-8-8-|7---7---5-5-5-8-8-8-|
e:--------------------|--------------------|

e:--------------------|--------------------|
b:--------------------|--------------------|
g:7---7---5-5-5-8-8-8-|7---7---5-5-5-8-8-8-|
d:7---7---5-5-5-8-8-8-|7---7---5-5-5-8-8-8-|
a:5---5---3-3-3-6-6-6-|5---5---3-3-3-6-6-6-|
e:--------------------|--------------------|

End on

E (-799---)
Tap to rate this tab
# A B C D E F G H I J K L M N O P Q R S T U V W X Y Z