Song name
# A B C D E F G H I J K L M N O P Q R S T U V W X Y Z

Sublime - Under My Voodoo tab

Help us improve GuitareTab! Take a short survey!
           i think this is right i learned it by ear so here goes

play it all with some overdrive
-----------------------------------------
----------6---b8-8-----------------------
------7-------------7--------------------
-----------------------------------------
-----------------------------------------
-----------------------------------------



------------------------------------------------------------------------------
------------------------------------------------------------------------------
---5---3----b5--5---3----------------------------------3---b5--5---3----------
--------------------------5---3---5----5---3---5------------------------------
------------------------------------------------------------------------------
------------------------------------------------------------------------------
Related for Under My Voodoo tab