Song name
# A B C D E F G H I J K L M N O P Q R S T U V W X Y Z

Sufjan Stevens - Rake tab

capo on 4th. standard tuning

e|------------------------------------------------------|
B|------------------------------------------------------|
G|------2--------2--------2--------2--------------------|
D|----0---0----0---0----0---0----0---0------------------|
A|--0--------2--------4--------4------------------------|
E|------------------------------------------------------|

For the Chorus there are 2 guitars but i play this and it sounds the same

e|------------------------------------------------------|
B|------0------------0--------0------------0------------|
G|--------2---2--------2--------2---2--------2----------|x4
D|----0-----0------0--------0-----0------0--------------|
A|--0------------2--------4------------4----------------|
E|------------------------------------------------------|

 play this for the end of the chorus
e|------------------------------------------------------|
B|------0------------0--------0------------3------------|
G|--------2---2--------2--------2---2--------2----------|
D|----0-----0------0--------0-----0------0--------------|
A|--0------------2--------4------------4----------------|
E|------------------------------------------------------|
Tap to rate this tab
# A B C D E F G H I J K L M N O P Q R S T U V W X Y Z